Ads

Ingo's Theme (Legend of Zelda: Ocarina of Time) Guitar Tab

Submitted: Aug 29, 2008 by superubercool (Last updated: Oct 31, 2009)

5
Average: 5 (5 votes)
Download | Listen
Game: Legend of Zelda: Ocarina of Time
Composer(s): Koji Kondo
Style: Transcription
Series: Legend of Zelda

AutoScroll: Slow | Medium | Fast
Ingo's Theme
Legend of Zelda: Ocarina Of Time
Tabbed by: Tyler Richardson
Composed by: Koji Kondo
Tuning: Standard
8/26/08
So first off, no one has done this tab probably because this is basically 
like Horse Race but the intro is different and it's played slower. 
Also, I tabbed it at the right pitch (which no one else has).
Please rate and enjoy!!


INTRO---->---->---->----|
e|8-8-6-5-3-3---------------8-8-8-10-8------------8-8-8-10-8------|
B|------------6-5-3-2-1----------------10--------------------10-8-|
G|----------------------------------------10-7-10-----------------|
D|----------------------------------------------------------------|
A|----------------------------------------------------------------|
E|----------------------------------------------------------------|

e|8-8-8-10-8-----------------------------|
B|-----------10---------10-10-8-10-8---6-|
G|--------------10-7-10--------------7---|
D|---------------------------------------|
A|---------------------------------------|
E|---------------------------------------|
REPEAT AS MANY TIMES A NECESSARY
Login or Register to remove this ad.

2 comments on Ingo's Theme

Pretty good, I love this

5

Pretty good, I love this song =]

Great tab. I think it sounds

5

Great tab. I think it sounds good if you do (5)b6r5b6 on the B string at the end. That means do a pre-bend on the fifth fret up to the sixth fret, release down to the fifth, and bend back up to the sixth fret.