Ads

Song of Healing (Legend of Zelda: Majora's Mask) Guitar Tab

Submitted: Jun 23, 2008 by Rembrant (Last updated: Oct 18, 2009)

5
Average: 5 (5 votes)
Download | Listen
Game: Legend of Zelda: Majora's Mask
Composer(s): Koji Kondo, Toru Minegishi
Style: Arrangement, Fingerstyle
Series: Legend of Zelda

AutoScroll: Slow | Medium | Fast
                                Song of Healing                                 


Track 1
     E  E  E  E  E  E     E  E  E  E  E  E     E  E  E  E  E  E   
D||--7-----5-----------|--7-----5-----------|--7-----5-----0-----|
A||--------------6-----|--------------6-----|-----------------3--|
F||-----5-----5-----5--|-----5-----5-----5--|-----5-----5--------|
C||--------------------|--------------------|--------------------|
G||--8-----------------|--8-----------------|--8-----------------|
D||--------------------|--------------------|--------------------|


  H.              Q    Q    Q                 E  E  E  E  E  E   
--0------------|-----------------|--------||--1-----------------|
---------------|--0----0----0----|--------||--------1-----0-----|
---------------|-----------------|-------*||-----2-----2-----2--|
--2------------|-----------------|-------*||--0-----------------|
---------------|-----------------|--------||--------------------|
---------------|-----------------|--------||--------------------|


  E  E  E  E  E  E     E  E  E  E  E  E     H.              E  E  E  E  E  E   
--1-----------------|--1-----0-----------|---------------|--1-----------------|
--------1-----0-----|--------------0-----|--0------------|--------1-----0-----|
-----2-----2-----2--|-----0-----0-----2--|---------------|-----2-----2-----2--|
--0-----------------|--------------------|---------------|--0-----------------|
--------------------|--3-----------------|---------------|--------------------|
--------------------|--------------------|---------------|--------------------|


  E  E  E  E  E  E     E  E  E  E  E  E     H.            
--1-----------------|--1-----0-----7-----|---------------|
--------1-----0-----|--------------------|--8------------|
-----2-----2-----2--|-----0-----0-----0--|---------------|
--0-----------------|--------------------|---------------|
--------------------|--3-----------------|---------------|
--------------------|--------------------|---------------|


   E  E   E  E   E  E      E  E   E  E   E  E     E  E  E  E  E  E   
-----------------------|--10-----10-----10-----|--------------------|
--10-----10-----10-----|-----------------------|--8-----8-----8-----|
-----------------------|-----------------------|--------------------|
----------8------------|---8-------------8-----|--------7-----------|
---8--8------8---8--8--|------8---8--8------8--|--7--7-----7--7--7--|
-----------------------|-----------------------|--------------------|


  E  E  H           E  E  E  E  E  E     E  E  E  E  E  E   
--8--------------|--------------------|--6-----6-----6-----|
--------8--------|--6-----6-----6-----|--------------------|
-----------------|--------------------|--------------------|
--7--------------|--------5-----------|--5-----------5-----|
-----7--7--------|--5--5-----5--5--5--|-----5--5--5-----3--|
-----------------|--------------------|--------------------|


  E  E  E  E  E  E     H.               E  E   E  E   E  E   
--------------5-----|---------------|-----------------------|
--5-----3-----------|--5------------|--10-----10-----10-----|
--------------------|---------------|-----------------------|
--------------------|---------------|----------8------------|
--3--3--3--3--3--3--|---------------|---8--8------8---8--8--|
--------------------|---------------|-----------------------|


   E  E   E  E   E  E     E  E  E  E  E  E     E  E  H         
--10-----10-----10-----|--------------------|--8--------------|
-----------------------|--8-----8-----8-----|--------8--------|
-----------------------|--------------------|-----------------|
---8-------------8-----|--------7-----------|--7--------------|
------8---8--8------8--|--7--7-----7--7--7--|-----7--7--------|
-----------------------|--------------------|-----------------|


  E  E  E  E  E  E     E  E  E  E   E  E     E  E   E  E  E  E   
--------------5-----|--6-----8-----10-----|---------------7-----|
--6-----8-----------|---------------------|--8-----10-----------|
--------------------|---------------------|---------------------|
--------------------|---------------------|---------------------|
--5--5--5--5--5--5--|--5--5--5--5---5--5--|--7--7---7--7--7--7--|
--------------------|---------------------|---------------------|


   E  E   H          
--10-----12--------||
-------------------||
-------------------||
-------------------||
---7--7---9--------||
-------------------||




Duration Legend
---------------
W - whole
H - half
Q - quarter
E - 8th
S - 16th
. - note dotted
L - tied note
Login or Register to remove this ad.

2 comments on Song of Healing

Epicness!!!

5

This is the best song ever! EVER!!! Nice tab

GREAT

great tab! im so glad i can play this solo