Ads

Spiral Mountain (Banjo-Kazooie) Guitar Tab

Submitted: Jan 18, 2008 by Luke (Last updated: Sep 26, 2009)

4.666665
Average: 4.7 (3 votes)
Download | Listen
Game: Banjo-Kazooie
Composer(s): Grant Kirkhope
Style: Arrangement, Fingerstyle

AutoScroll: Slow | Medium | Fast
===Nintendo 64 - Banjo Kazooie - Spiral Mountain===
==================Arranged by Luke=================
===================Drop D tuning===================

+++++++++++++++++++++++MainBanjo++++++++++++++++++++++
------------------------------------------------------
-----0-1-1-3-1-----------0-1-0------------------------
-0-2-----------0-0-2-0-2-------2-0-0-2-0--------------
-----------------------------------------0-3-0-2------
---0-2-3-----3-----0-------0---------------0---3----3-
-5-------5-------5-----2-----2---5-0---5---------5----

-------------------0---0-------------0---------------
-----0-1-1-3-1-------3---3-1-0-1-3-3---3---0---0-----
-0-2-----------0-0-----1---2-------------2---2---2-0-
-------------------2---------2-1-0-----0-------0-----
---0-2-3-----3---------------------0-----0-----------
-5-------5-------5-------------------------5-------5-

--------------------------------------------------------------
-----0-1-1-3-1-----1-1-3-1---------1-1-3-1------1-1-3-4-3-1---
-0-2-----------0-0---------1-1--------------2-2-------------1-
-------------------------------0-2-3-----3------3-----3-------
---0-2-3-----3-----3-----3---3-------3--------3---3-------3---
-5-------5-------5---6----------------------------------------

-------------------------------------------------
-1-1-3-1-----0---0---------0-1-1-1-0-1---1-1-0-1-
---------0-0---2---2-0-0-2-------------1--------- 2x
-----------------0-------------------------1-----
-3-----3-----------------0-2-3-------------------
---5-------5-5-------5-5---------5-----6---------

++++++++++++++++++++Flute Part++++++++++++++++++++
-1-3-5-3-8------0---3--1-3-5-1-8--7-7-5-5-7-7-3-3-
------------1-3---1-------------------------------
--------------------------------------------------
--------------------------------------------------
--------------------------------------------------
--------------------------------------------------

-1-3-5-1-8------0---3--1-3-5-1-2-3-5-2-3-5-7-3-7-10-15-
------------1-3---1------------------------------------
-------------------------------------------------------
-------------------------------------------------------
-------------------------------------------------------
-------------------------------------------------------
Login or Register to remove this ad.

7 comments on Spiral Mountain

good tab but i think in the

good tab but i think in the 2nd last bar thepart should be -1-3-5-1-8 not -1-3-5-3-8
its still really good though

Hey, I don't really

Hey, I don't really understand this. So the first three strings are the main stuff, then what's the rest. Also, I think that's only the main flute part, and not the stuff earlier. If someone could explain it'd be much appreciated.

Sorry for the double post,

Sorry for the double post, but I was wrong, flute part is perfectly right. I was playing way too slow. XD. Still don't understand the rest of it though.

its the backround sounds i

its the backround sounds i believe but just ignore them when you play it makes it way easyer

it looks likke the guitar

4

it looks likke the guitar exploded and left all those notes tone it down a little 5/8 of those arent needed

per ex on: How do u

per ex on: How do u manage to play this? omg >.<
------
---1--
------
------
------
---5--

The fingerstyle part of this

The fingerstyle part of this could definitely be arranged better, but it sounds good