Ads

Click Clock Wood (Banjo-Kazooie) Guitar Tab

Submitted: Apr 05, 2009 by afonso_teles (Last updated: Feb 03, 2010)

4.857145
Average: 4.9 (7 votes)
Download | Listen
Game: Banjo-Kazooie
Composer(s): Grant Kirkhope
Style: Arrangement, Fingerstyle

AutoScroll: Slow | Medium | Fast
                               Click Clock Wood                                 
				Banjo Kazooie
Arranged by Afonso Teles
                                                                  Grant Kirkhope
Track 1



     E.  S  E.   S E.  S  E.   S    E.  S  E.   S Q    Q     
E||------------------------------|--------------------------|
B||--1-------------1-------------|--1---3h-4h---5-----------|
G||------0h-2p---0-----0h-2p---0-|---------------------5----|
D||------------------------------|--------------------------|
A||--3-------------3-------------|--3-------------3---------|
E||------------------------------|--------------------------|


  Q    Q    E.  S E.  S    Q    E.   S  E.   S  Q     
------------------------|----------------------------|
--0----0----0---------0-|----------------------------|
----------------2-0-----|----------------------------|
------------------------|-------3h---5p-3p---2p-0----|
------------------------|----------------------------|
--3---------3-----------|--3-------------------------|


  E.  S  E.   S E.  S  E.   S    E.   S  E.   S Q    Q     
------------------------------|---------------------------|
--0-------------0-------------|--0h---1h-2h---3------0----|
------0h-2p---0-----0h-2p---0-|---------------------------|
------------------------------|---------------------------|
------------------------------|---------------------------|
--3-------------3-------------|--3--------------3---------|


  Q    Q    E.  S  E.  S    Q    Q    Q    Q       E.  S  E.   S E.  S  E.   S  
-------------------------|----------------------|------------------------------|
--1----1----1----------1-|----------------------|--1-------------1-------------|
----------------2p-0-----|-------0----2----4----|------0h-2p---0-----0h-2p---0-|
-------------------------|----------------------|------------------------------|
--3---------3------------|--3-------------------|--3-------------3-------------|
-------------------------|----------------------|------------------------------|


  E.  S  E.   S Q    Q       Q    Q    E.  S E.  S  
--------------------------|------------------------|
--1---3h-4h---5-----------|--0----0----0---------0-|
---------------------5----|----------------2-0-----|
--------------------------|------------------------|
--3-------------3---------|------------------------|
--------------------------|--3---------3-----------|


  Q    E.   S  E.   S  Q       E.  S  E.   S E.  S  E.   S  
----------------------------|------------------------------|
----------------------------|--0-------------0-------------|
----------------------------|------0h-2p---0-----0h-2p---0-|
-------3h---5p-3p---2p-0----|------------------------------|
----------------------------|------------------------------|
--3-------------------------|--3-------------3-------------|


  E.   S  E.   S Q    Q       Q    Q    E.  S  E.  S    E.  S Q    Q    Q     
---------------------------|-------------------------|-----------------------|
--0h---1h-2h---3------0----|--1----1----1----------1-|------1-----------0----|
---------------------------|----------------2p-0-----|--------0----2---------|
---------------------------|-------------------------|-----------------------|
---------------------------|--3---------3------------|--3----------3---------|
--3--------------3---------|-------------------------|-----------------------|


  H        E.   S Q       Q    Q    H             H        E.   S Q     
-----------------------|--0------------------|-------------------------|
------------------1----|-------1-------------|--------------------1----|
--2--------2h---4------|------------0--------|--0g2--------2h---4------|
-----------------------|---------------------|-------------------------|
-----------------------|--3---------3--------|-------------------------|
--1--------1-----------|---------------------|----1--------1-----------|


       |---3---|                                                                
  Q    E   E   E   Q     Q       H        E.   S Q       Q    Q    Q.     S  S  
--0---------------------------|-----------------------|--0---------------------|
------------------------------|------------------1----|-------1-----------3h-5-|
------------------------------|--2--------2h---4------|------------0-----------|
-------5p--4h--5h--6p----5----|-----------------------|------------------------|
--3---------------------------|-----------------------|--3---------3-----------|
------------------------------|--1--------1-----------|------------------------|


  Q    Q    Q    E.  S    E.  S E.  S E.  S E.  S    Q    E.  S Q    E.  S  
------------3----3---5-|--3---3-------------------|------------------------|
--6----3---------------|--------6---6-5---5-3---3-|--1---------------------|
-----------------------|--------------------------|-------x---x-0----x---x-|
-----------------------|--------------------------|-------x---x------x---x-|
-----------------------|--------------------------|------------------------|
--3---------3----------|--3-----------3-----------|------------------------|


  Q    E.  S Q    E.  S    Q    E.  S Q    Q       Q    E.  S Q    E.  S  
------------------------|-----------------------|--0---------------------|
------------------------|--1----------3----4----|-------------1----------|
--2----x---x-0----x---x-|-------x---x-----------|-------x---x------x---x-|
-------x---x------x---x-|-------x---x-----------|-------x---x------x---x-|
------------------------|-----------------------|------------------------|
------------------------|-----------------------|------------------------|


  Q    E.  S Q    E.  S    Q    E.  S Q    E.  S    Q    E.  Q    S E.  S  
------------------------|------------------------|------------------------|
--1---------------------|------------------------|------------------------|
-------x---x-0----x---x-|--2----x---x-0----x---x-|-------x---x------x---x-|
-------x---x------x---x-|-------x---x------x---x-|-------x---x----2-x---x-|
------------------------|------------------------|--3---------------------|
------------------------|------------------------|------------------------|


                           ^                  
  Q    E.  Q    S E.  S    W                  
------------------------|-------------------||
------------------------|--1----------------||
-------x---x------x---x-|--0----------------||
-------x---x----2-x---x-|--2----------------||
--3---------------------|--3----------------||
------------------------|-------------------||




Duration Legend
---------------
W - whole
H - half
Q - quarter
E - 8th
S - 16th
T - 32nd
X - 64th
. - note dotted
|-n-|  - n-tuplets


Tablature Legend
----------------
L - tied note
x - dead note
g - grace note
(n) - ghost note
> - accentuded note
NH - natural harmonic
AH - artificial harmonic
TH - tapped harmonic
SH - semi harmonic
PH - pitch harmonic
h - hammer on
p - pull off
b - bend
br - bendRelease
pb - preBend
pbr - preBendRelease
brb - bendReleaseBend
\n/ - tremolo bar dip
\n - tremolo bar dive
-/n - tremolo bar Release up
/n\ - tremolo bar inverted dip
/n - tremolo bar return
-\n - tremolo bar Release down
S - shift slide
s - legato slide
/ -  slide into from below or out of upwards
\ -  slide into from above or out of downwards
~ - vibrato
W - wide vibrato
tr - trill
TP - tremolo picking
T - tapping
S - slap
P - pop
< - fade in
^ - brush up
v - brush down
Login or Register to remove this ad.

3 comments on Click Clock Wood

Charming

Charming

great thanks for working on

5

great thanks for working on my request

Wow, this is really accurate,

Wow, this is really accurate, I rarely find tabs that are so close to the music. Thanks a lot!