Ads

Witch Dagger (Night in the Woods) Bass Tab

Submitted: Jan 23, 2022 by turnip_t (Last updated: Jan 24, 2022)

0
Download | No audio :(
Game: Night in the Woods
Composer(s): Alec Holowka
Style: Fingerstyle

AutoScroll: Slow | Medium | Fast

Night in the Woods - Witch Dagger - Original Soundtrack, Vol. 1 / At the End of Everything
Composer: Alec Holowka

Metal Cover by DIZCHU on YouTube: https://www.youtube.com/watch?v=MGi56UC7n-o
Transcribed from cover by shaurma vkusnaya: https://www.youtube.com/watch?v=uBW_Txqg-Y8

The few notes on the B string are subtle, so you can ignore them if you want to play on a 4 string EADG. Tuning to Drop D is also an option.

********************************************************************

  [Opening Riff]
G|-----------------------------------------------------------------|
D|-----------------------------------------------------------------|
A|-----------------------------------------------------------------|
E|-0------/7---0---0-------3-4-5---0------/7---0---0-------5---4---|
B|-----------------------------------------------------------------|
   1 + 2 + 3 + 4 + 1 + 2 + 3 + 4 + 1 + 2 + 3 + 4 + 1 + 2 + 3 + 4 +

G|-----------------------------------------------------------------|
D|-----------------------------------------------------------------|
A|-----------------------------------------------------------------|
E|-0------/7---0---0-------3-4-5---0------/7---0---0---4---5-------|
B|-----------------------------------------------------------------|
   1 + 2 + 3 + 4 + 1 + 2 + 3 + 4 + 1 + 2 + 3 + 4 + 1 + 2 + 3 + 4 +

  [Refrain]
G|-----------------------------------|
D|o---------------------------------o|   x4
A|-----------------------------------|
E|o/5---5---5---8---1---1---1---0---o|
B|-----------------------------------|
    1+2+3+4+1+

  [Break]
G|-----------------------------------------------------------------|
D|-----------------------------------------------------------------|
A|-----------------------------------------------------------------|
E|-0-----------0---0-----------0-1-0-----------0---0-------5---4---|
B|-------------------------4---------------------------------------|
   1 + 2 + 3 + 4 + 1 + 2 + 3 + 4 + 1 + 2 + 3 + 4 + 1 + 2 + 3 + 4 +

G|-----------------------------------------------------------------|
D|-----------------------------------------------------------------|
A|-------------------------------------------------------------2---|
E|-0-----------0---0-----------0-1-0-----------0---0-------4-------|
B|-------------------------4---------------------------------------|
   1 + 2 + 3 + 4 + 1 + 2 + 3 + 4 + 1 + 2 + 3 + 4 + 1 + 2 + 3 + 4 +

  [Double Time Segment]
G|------------------------------------------------------------------|
D|o-----------------------------------------------------------------|
A|--0---0---0-7-5-------------5-3-----------------------------------|
E|o-----------------3---3---3-------1---1---1-5-3-1-0-1/4---4-5/7---|
B|------------------------------------------------------------------|
    1 + 2 + 3 + 4 + 1 + 2 + 3 + 4 + 1 + 2 + 3 + 4 + 1 + 2 + 3 + 4 +

G|------------------------------------------------------------------|
D|-------------------------------------------------7-------10-9----o|   x2
A|-0---0---0-7-5-------------5-3-----------3---8-----8-7--------7---|
E|-----------------3---3---3-------1---4---------------------------o|
B|------------------------------------------------------------------|
   1 + 2 + 3 + 4 + 1 + 2 + 3 + 4 + 1 + 2 + 3 + 4 + 1 + 2 + 3  + 4 +

  [Refrain]
G|-----------------------------------|
D|o---------------------------------o|   x4
A|-----------------------------------|
E|o/5---5---5---8---1---1---1---0---o|
B|-----------------------------------|

Repeat

********************************************************************

Login or Register to remove this ad.