Ads

Weird Autumn (Night in the Woods) Guitar Tab

Submitted: Jan 07, 2020 by VitinComMicrocefalia (Last updated: Jan 08, 2020)

3.5
Average: 3.5 (2 votes)
Download | No audio :(
Game: Night in the Woods
Composer(s): Alec Holowka
Style: 2 or more instruments

AutoScroll: Slow | Medium | Fast
E|----------------------------------------------------------------------------------|
B|----------------------------------------------------------------------------------|
G|-------4--------------------------------4-----------------------------------------|
D|-----5----------4---------------------5---------4---------------------------------|
A|-7-9----------5-----7-7-5--7-7-5--7-9---------5---7-7-5--7-7-5--------------------|
E|----------7-9-----------------------------7-9-------------------------------------|

E|----------------------------------------------------------------------------------|
B|----------------------------------------------------------------------------------|
G|----------------------------------------------------------------------------------|
D|-----2-4---------0-2-4-4/7-7-5-4-0-----2-4---------0-2-4-4/7-7-5-4-0--------------|
A|-3-5---------2-4-------------------3-5---------2-4--------------------------------|
E|---------3-5-------------------------------3-5------------------------------------|            x2

---------------------------------------------------------------------------------------------------

E|----------------------------------------------------------------------------------------------|
B|----------------------------------------------------------------------------------------------|
G|--------12------12-----------------------12------12-------------------------------------------|
D|-----10-------9---------12------------10-------9----------------------------------------------|
A|--12-------10---------9------------12-------10------------------------------------------------|
E|-------------------10------8-8-8-8------------------10-10-10-10-10-10-10-10-10-10-10-10-10-10-|x2

---------------------------------------------------------------------------------------------------

E|-------------------------------------|
B|-------------------------------------|
G|-------------------------------------|
D|-----2-4---------0-2-4-2/7-7-5-4-0---|
A|-3-5---------2-4---------------------|
E|---------3-5-------------------------|                                                         x4

---------------------------------------------------------------------------------------------------

E|--------------------------------------------------------------|
B|--------------------------------------------------------------|
G|--------------------------------------------------------------|
D|-10-10-9-7-5-5-4-2-0-0-0-0-0-0-0-0-0-0-0-0-0-0-0--------------|
A|--------------------------------------------------------------|
E|--------------------------------------------------------------|

--------------------
/= slide
--------------------

All in a day's work.

<3
Login or Register to remove this ad.