Ads

Yonah Pluck Ver. (Nier) Guitar Tab

Submitted: Oct 26, 2010 by hslesperance (Last updated: Aug 10, 2012)

5
Average: 5 (7 votes)
Download | Listen
Game: Nier
Composer(s): Keiichi Okabe, Kakeru Ishihama, Keigo Hoashi, Takafumi Nishimura
Style: Fingerstyle, Transcription

AutoScroll: Slow | Medium | Fast
Yonah Pluck Ver.
Nier
Composed by Keiichi Okabe, Kakeru Ishihama, Keigo Hoashi, Takafumi Nishimura
Tabbed by hslesperance
10/26/10

Standard Tuning


  Q=76
 3/4
  E E Q  Q    E E Q  Q    E E E Q  E   H    Q
|--------3--|-5---3-----|-------1----|-5-------|
|-4---6-----|-----------|-3---3------|---------|
|---0-3-----|---5----5--|---2------2-|---------|
|-----------|-3---------|------------|---------|
|-3---------|-----------|-1----------|---------|
|-----------|-----------|------------|---------|


  E E E E E E   E E Q  Q    Q.   E E E   H.
|-3-------3---|-2---3--5--|------------|-------|
|-----1---1---|-----3-----|-3----------|-3-----|
|---0---0---0-|---2-------|------2-3-2-|-------|
|-------------|-0---------|------------|-------|
|-0-----------|-----------|------------|-------|
|-------------|-----------|-3----------|-------|


  E E E E Q     H.        E E E E E E   Q  H
|---------3--|-^5-------|---------1---|-3-------|
|-4---6------|----------|-3---4-----1-|----3----|
|---0-3-0----|-^5-------|---2---2-----|---------|
|------------|-^3-------|---------0---|-1-------|
|-3----------|----------|-1---3-------|---------|
|------------|----------|-------------|---------|


  Q=70        Q=76
   >
   Q  Q  Q     Q  Q  Q    E E E E E E   H.
|-^3--3--3--|-^3--2--3--|-5-------3---|-2-----|
|-^3--------|-^3--------|-3---3---3---|-3-----|
|-^3--------|-^0--------|---2---2---2-|-------|
|-^2--------|-----------|-0-----------|-0-----|
|-----------|-^0--------|-------------|-------|
|-----------|-----------|-------------|-------|


  Q=70
   Q  Q  Q    E E Q  Q     Q  Q  Q    E E Q  Q
|-^6--5-----|--------6--|-^5--3-----|-----------|
|--------3--|-4---------|-----------|-3---3-----|
|-^3--------|---0-3-----|-^5-----5--|---2-------|
|-----------|-----------|-^3--------|-----------|
|-----------|-3---------|-----------|-1---------|
|-^3--------|-----------|-----------|-----------|


                                      H=H
  Q  Q  Q    E E Q  Q    E E E Q  E   E E E E E E
|-3--1-----|--------3--|-3-----3----|-2---3---5---|
|----------|-1---------|-----3------|-------------|
|-------3--|-----1-----|---2------2-|---2---0---2-|
|-1--------|---1-------|-0----------|-0---2---4---|
|----------|-0---------|------------|-------------|
|----------|-----------|------------|-------------|


  Q=70
   Q  Q  Q     E E Q  Q     Q  Q  Q    E E Q  Q
|-^6--5-----|---------6--|-^5--3-----|--------1--|
|-^3-----3--|-^4---------|-----------|-3---3-----|
|-^x--------|-^0-0-3-----|-^5-----5--|---2-------|
|-^x--------|------------|-^3--------|-----------|
|-^5--------|-^3---------|-----------|-1---------|
|-^3--------|------------|-----------|-----------|


                                           H.=H
  E E E E +Q     Q  Q  Q    E E E E +Q     Q  Q  Q
|-3-----3-(3)--|-3--5--6--|-5-----5-(5)--|-5--6--8--|
|-----4--------|----------|-----6--------|----------|
|---3----------|----------|---5----------|-2--------|
|-1------------|----------|-3------------|-3--------|
|--------------|----------|--------------|----------|
|--------------|-0--------|--------------|----------|


  Q=70
  E E E Q  E    Q.    E  E  E   E E E a Q  E   H    Q
|-6-----6----|-10-------------|-------1h3----|-6-------|
|---3-6----3-|-11-------11----|-----3--------|---------|
|-0----------|----------10----|---3--------3-|---------|
|------------|-------12----12-|-1------------|---------|
|------------|----------------|--------------|---------|
|------------|----------------|--------------|---------|


  E E E Q  E   Q.   E E E   E E E Q  E   H    Q
|-------1----|-1----------|-------6----|---------|
|-------1----|--------1---|-----3-6----|-3-------|
|-----3------|--------0---|---3------3-|---------|
|---3------3-|------------|-1----------|---------|
|------------|------------|------------|---------|
|-3----------|------3---3-|------------|---------|


  Q=60
 4/4
  S S S S S S S S S S E S S S S   S S S S H.
|-------------1-----------------|-----3-----------|
|-1-----1-----------1-------1-3-|-1-------3-------|
|-----3---3-------3---3---0-----|---0---0-0-------|
|---3-------3---3-------1-------|-----------------|
|-------------------------------|-----------------|
|-3-----------------------------|-----------------|


  S S S S S S S S S S S E S S S   S S S S H.
|-------------1-----------------|-6-------6-----*|
|-------1-----------1---------3-|-6---3---------*|
|-----3---3-------3---3-----3---|---3---3-------*|
|---3-------3---3-------3-1-----|---------------*|
|-------------------------------|---------------*|
|-3-----------------------------|---------------*|

h - hammer on
> - volume swell

W - whole
H - half
Q - quarter
E - 8th
S - 16th
a - acciaccatura
+ - note tied to previous
. - note dotted
Login or Register to remove this ad.

3 comments on Yonah Pluck Ver.

A bit sad but cute tune. Your

5

A bit sad but cute tune. Your transcription seems perfect. TY

Great!

5

Indistinguishable from the song. Spot on!

such a lovely tune

5

such a lovely tune