Ads

Yonah (Nier) Guitar Tab

Submitted: Jan 03, 2021 by guitarsvd (Last updated: Jan 08, 2021)

5
Average: 5 (1 vote)
Download | No audio :(
Game: Nier
Composer(s): Keiichi Okabe, Kakeru Ishihama, Keigo Hoashi, Takafumi Nishimura
Style: Arrangement, Artificial harmonics, Fingerstyle, Natural harmonics

Click here for a video example.

AutoScroll: Slow | Medium | Fast
Title: Yonah
SubTitle: NieR Replicant/Gestalt
Artist: Cecil Chau (GuitarSVD)
Tempo = 90
Nylon Guitar

Legend
L - tied note
x - dead note
h - hammer on/pull off
b - bend
s - slide
~ - vibrato
g - ghost note
> - accentuated note
t - trill
M - palm mute
. - staccato
P - popping (bass)
S - slapping (bass)
+ - tapping
W - wide vibrato
< - fade in
w - whammy bar
= - tremolo picking
v - brush up
^ - brush down
V - pick stroke up
n - pick stroke down

     ^                                                 ^         
E |--15-14-7-------|--8-----15------|--14-12---------|--7-------|
B |-----------12---|-----------10---|--15----10------|-----7----|
G |-----------12---|-----------9----|----------------|-----12---|
D |----------------|----------------|-----------12---|----------|
A |----------------|----------------|----------------|----------|
E |----------------|----------------|----------------|----------|

                                        ^
--12-10---------|--5-----12------|--12------|--11-12-14------------|
--------8--8----|-----------5----|-----10---|--12-14-16------------|
-----------9----|-----------10---|-----9----|----------------------|
----------------|----------------|----------|-----------9--11-13---|
----------------|----------------|----------|----------------------|
----------------|----------------|----------|----------------------|


--15-14-7-------|--8-----15------|--14-12---------------|--7-------|--12------|
-----------12---|-----------10---|--------10------------|--7-------|-----8----|
-----------12---|-----------9----|-----------------11---|-----12---|-----9----|
----------------|----------------|-----------0----------|----------|-----10---|
----------------|----------------|--------------12------|----------|----------|
----------------|----------------|----------------------|----------|----------|


--12-14-15------|--14------|--14-15-17------|--19---------------------------|
-----------12---|--10------|--12------------|--------0-----0----------------|
----------------|-----11---|----------------|-----------------12------------|
-----------11---|-----12---|-----------13---|-------------------------------|
----------------|----------|----------------|-------------------------------|
----------------|----------|----------------|-----------0-------------------|


-------------------------|-------------------------|
--1--------1-------------|--3----------------------|
-------------------------|-----------2-------------|
--------2----------------|--------4----------------|
-----0-------------------|-----5-------------------|
-------------------------|-------------------------|


-------------------------------|--0-------------|--0-----0-------|
--0-----3----------------------|--------0-------|-----2----------|
--------------0----------------|-----------0----|-----------2----|
-----------------4-------------|----------------|-----------2----|
-------------------------------|-----------3----|----------------|
-----------3-------------------|----------------|-----------2----|


--0----------------------|-----0--2-------------|--3----------------------|
-------------------------|--4-------------------|-------------------------|
-------------------------|----------------------|-----------0-------------|
-----------------2-------|-----------------1----|-------------------------|
-----2-----2-------------|-----------2--4-------|--------2----------------|
--------2----------------|----------------------|-----0-------------------|


--------3----------------------|--2----------------------|
--1----------------------------|-----------3-------------|
-------------------------------|--------2----------------|
-------------------------------|-----0-------------------|
-----------0-----0-------------|-------------------------|
--------------0----------------|-------------------------|


-------------------------------|--0----------------------------|
--0-----3----------------------|--0-----0----------------------|
-----------------0-------------|-------------------------------|
--------------0----------------|-------------------------------|
-------------------------------|-----------3-----3-------------|
-----------3-------------------|--------------3----------------|


--0-------------|--0-----0----------------------|----------|
----------------|-------------------------------|--4-------|
----------------|-------------------------------|----------|
-----------2----|-------------------------------|-----4----|
--------4-------|-----------2-----2-------------|-----2----|
-----2----------|--------------2----------------|----------|


--------0-------------|--2--0----------------|----------------|-------|
--1--3----------------|--------------3-------|--0-------------|--3----|
-----------------2----|--------2-------------|-----------4----|--4----|
--------------2-------|-----------0----------|-----4--0-------|--4----|
-----------0----------|----------------------|----------------|-------|
----------------------|----------------------|-----3----------|-------|


--0--0--0-------------|-----0--2-------------|----------------|----------------|
----------------------|--4-------------------|--0L------------|--0-------------|
----------------------|----------------------|--0-------------|-----0----------|
-----------2-----2----|-----------------1----|-----4-----2----|--------2--0----|
--------------4-------|-----------2--4-------|--------2-------|----------------|
-----------2----------|----------------------|-----0----------|----------------|


--------0----------------------|--2-------|-------------------------------|
--1--3-------------------------|-----3----|--0--1--3----------------------|
-----------------2-----0-------|-----2----|-----------------0-------------|
--------------2-----2----------|-----0----|--------------0----------------|
-----------0-------------------|----------|-------------------------------|
-------------------------------|----------|-----------3-------------------|


--0-------------|--0--0--0-------|--0-----0-------|--2-------------|
-----0----------|--2-----2-------|--2--4----------|--5-------------|
--0--------0----|--0--0----------|--3-------------|-----------4----|
----------------|----------------|----------------|--------4-------|
-----3----------|-----------4----|----------------|-----2----------|
----------------|----------------|-----------2----|----------------|


--------7-------|--3--2-------------------------|
-----7--7-------|--------0----------------------|
--8--8----------|--------------------0L-0-------|
--9-------------|-----------------2-------------|
----------------|--------------2----------------|
-----------7----|-----------0-------------------|


--------3----------------------|--2--0-------------------------|
--1-----------------1L-1-------|-----------------3-------------|
-----------------2-------------|--------2-----2----------------|
--------------2----------------|-----------0-------------------|
-----------0-------------------|-------------------------------|
-------------------------------|-------------------------------|


-------------------------|--0----------------------------|
--0--------------0--3----|--0--3-------------------------|
--------0-----0----------|--------0--------0-------------|
-----4-----4-------------|--------------2----------------|
-------------------------|-----------3-------------------|
-----3-------------------|-------------------------------|


--------0----------------------|--0-------------|-----0--2-------------|
--------------------0--1-------|----------------|--4-------------------|
--2--------------2-------------|-----------4----|----------------------|
--------------2----------------|--------4-------|-----------------1----|
-----------0-------------------|-----2----------|-----------2--4-------|
-------------------------------|----------------|----------------------|


--3-----2----------------|--------3----------------------|
--0-----0-----0----------|--1-----------------1----------|
--------------0----------|--2--------------2-----2-------|
-----2-----2-----2-------|--------------2----------------|
-------------------------|-----------0-------------------|
--------------------0----|-------------------------------|


--2-----0----------------|-------------------------|--0----------------------|
--3-----3----------------|--0--------------0--3----|--0-----------0----------|
--------------2----------|--------0-----0----------|-----------0-----0-------|
-----4-----4-----4-------|-----4-----4-------------|--------2-----------2----|
--------------------5----|-------------------------|-----3-------------------|
-------------------------|-----3-------------------|-------------------------|


--0-----2-----3----------|--2--------------2-------|
--2-----0----------------|-----------3-------------|
-----0-----0-------------|--------2----------------|
-------------------------|-----0-------------------|
--------------------4----|-------------------------|
-------------------------|-------------------------|


--2--3--5----------------------|--7L----------7--3----------------------|
-----------------0-----7-------|--------------------------0-----0-------|
--------------2----------------|-----------------------0-----9----------|
-----------1-------------------|----------------------------------------|
-------------------------------|----------------------------------------|
-------------------------------|--------------------0-------------------|


--7--------5--3--7----------------------|
--------------------------0--5--0-------|
-----------------------0-----------0----|
----------------------------------------|
--------------------3-------------------|
----------------------------------------|


--5-----2-----2--3----------------------|
--------------------------3-------------|
-----------------------2-----2L-2-------|
--------------------0-------------------|
----------------------------------------|
----------------------------------------|


--5-----2--------2----------------------|
--------------3-----------3-------------|
-----------------------2-----2-----2----|
--------------------------------4-------|
--------------------2-------------------|
----------------------------------------|


--0--------2--3--7----------------------|--12-9--12---------------------|
-----------------------------0-----0----|-----------------10----10------|
--------------------------0-----0-------|-------------------------------|
-----------------------2----------------|--------------11----11----11---|
--------------------3-------------------|-----------9-------------------|
----------------------------------------|-------------------------------|


--12----------9--12---------------------|--11----19---------------------|
--------------------------0-----0-------|-----------------0-----0-------|
-----------------------------9----------|--------------------8----------|
----------------------------------------|-------------------------------|
-----------------------9----------------|--------------9----------------|
--------------------7-------------------|-----------7-------------------|


--3--2-------------------------|--------3-------------|
--------0----------------------|--1-------------------|
-----------------0-------------|-----------------2----|
--------------2----------------|--------------2-------|
-------------------------------|-----------0----------|
-----------0-------------------|----------------------|


--2--0-------------------------|----------|--12------|--12----12------|
-----------------3-------------|--0-------|----------|-----12---------|
--------2-----2----------------|--0-------|----------|----------------|
-----------0-------------------|----------|----------|----------------|
-------------------------------|----------|----------|----------------|
-------------------------------|-----3----|-----8----|-----------7----|


--12L-----|--12---||
--12L-----|--12---||
----------|-------||
----------|-------||
----------|-------||
-----0----|-------||

Login or Register to remove this ad.

1 comment on Yonah

Beautiful

5

Very well done