Login or Register to remove this ad.

Shadowlord (Nier) Guitar Tab

Submitted: Jan 06, 2017 by Lurker McHuge

5
Average: 5 (4 votes)
Download | Listen
Game: Nier
Composer(s): Keiichi Okabe, Kakeru Ishihama, Keigo Hoashi, Takafumi Nishimura
Style: Arrangement, Fingerstyle

AutoScroll: Slow | Medium | Fast
Shadowlord
Nier
Composed by Keiichi Okabe
Arranged by Lurker McHuge

(You can put a capo on fret 8 to play it in the original key)

Tempo = 60 Q


     >    >     >    >             >                                        
     Q    E  E  Q    E  E     Q    Q    Q    Q       Q    Q    E  E  E  E   
E||------------------------|-----------------0----|--0---------------------|
B||--1-------1--3-------1--|--0----3----1---------|------------3--1--0-----|
G||--2----2-----2----2-----|----------------------|--2------------------2--|
D||--2----2-----3----3-----|--2---------2---------|--0---------0-----1-----|
A||------------------------|------------0---------|------------------------|
E||------------------------|--4----4---------3----|--1----0----------------|


                         >     >     >                                   
  Q    E  E  H           E  E  E  E  Q    Q       Q    Q    Q    E   E   
----------------------|-----------0------------|------------0----1p--0--|
--1----0--------------|--1-----1-----3----1----|--0----3----------------|
--2-------2--1--------|-----2--------2---------|--0---------0-----------|
--2----------2--------|--2-----2-----3----3----|------------------------|
----------------------|------------------------|-------2----3-----------|
--0----------0--------|------------------------|--3---------------------|

                       1._____________________ 2.______________________
  E  E  E  E  H           Q    Q    H             Q    Q    Q    Q     
-----------------------|----------------------||-----------------0----|
--3--1--0-----0--------|----------------------||----------------------|
--2--------2--1--------|--2------------------*||--2-------------------|
--0--------------------|--2----0-------------*||--2----0--------------|
-----------------------|--0---------3---------||--0---------3---------|
--------------0--------|----------------------||----------------------|


                                 >                                             
  Q    E  E  E  E  E  E     Q    E  E  E  E  E  E     E  E  E  E  E  E  E  E   
--5-------3--------------|--3----------0--------0--|--------------------------|
-------------6--5--3--6--|----------6-----3--1-----|--3-----------0--1--3-----|
-------------4-----------|--4----5-----2-----------|--------1--2--1--------4--|
--0----3-----------------|-------------3-----------|-----4--------------------|
-------------------------|--3----------------------|--2-----------------------|
-------------3-----------|----------------------0--|--------------0-----------|


                                        >                                    
  E  E  E  E  E  E  E  E     Q    E  E  E  E  E  E     Q    E  E  Q    Q     
--------------------0-----|--5-------0--------------|--0----3-----0----5----|
--1--0--1--3--1-----------|-------6-----3-----0--3--|--0-------6------------|
--2-----------------------|-------------4--5--------|-------------5---------|
--------------------------|--0----------------------|-----------------------|
--0-----------0--2--3--0--|-------------------2-----|--3----------0---------|
--------------------------|-------------3-----------|-----------------------|


  Q    Q    Q    E  E     H        H           H        H         
--5----1----5----2--5--|--5--------4--------|--5--------1--------|
--3---------4----------|--5-----------------|--------------------|
-----------------------|-----------4--------|--2-----------------|
-----------------------|--2-----------------|--------------------|
--2---------2----------|--------------------|--------------------|
-----------------------|-----------0--------|--------------------|


  Q    E  E  Q    E  E     Q    E  E  E  E  E  E     Q    E  E  H         
--0---------------------|--0----1--0--------------|----------------------|
-------3--1--3----1--3--|--1----------3--1--0--1--|--1----0--------------|
--2----------0----------|--2----------4-----------|--2-------2--1--------|
------------------------|--2----3--2--0-----1--2--|--2----------2--------|
------------------------|-------------------------|----------------------|
------------------------|-------------------------|----------------------|


  Q    E  E  Q    E  E     Q    E  E  E  E  E  E     Q.     E  E  E  E  E   
------------------------|-------3-----0--------0--|--5------3--1--0--------|
-------0--1--3----0--1--|--3-------6--0--3--------|------------------3--1--|
--2----------4----------|--4----------------5-----|--2---------2-----------|
-------------0----------|-------------------------|--3---------0-----------|
--0---------------------|-------------3-----------|------------------------|
------------------------|--3----------------------|------------------------|


  H        H           E  E  Q    E  E  Q       E  E  Q    E  E  Q     
--------------------|------------------------|------------------------|
--1--------0--------|-----1--3-------0--1----|-----1--3-------0--1----|
--2--------2--------|------------------------|------------------------|
--------------------|------------------------|------------------------|
--------------------|--0----------0----------|--0----------0----------|
--0--------0--------|------------------------|------------------------|

                                                  accel.-------------------
  E  E  Q    E  E  Q       E  E  E  E  Q    Q       E  E  Q    E  E  Q     
-------------------0----|--1--0------------------|------------------------|
-----1--3-------3-------|--------3--1--1----0----|-----1--3-------0--1----|
------------------------|------------------------|------------------------|
------------------------|--------------2---------|------------------------|
--0----------0----------|--0-----------0---------|--0----------0----------|
------------------------|------------------------|------------------------|

-----------------------------------------------------------------------
  E  E  E  E  Q    Q       E  E  E  E  Q    Q       H        H         
------------------------|-----0--1-----0----5----|--------------------|
-----1--3--0--1----3----|-----------3--1---------|--1--------0--------|
------------------------|------------------------|--2--------1--------|
--------------2---------|------------------------|--------------------|
--0-----------0---------|--0-----------0---------|--------------------|
------------------------|------------------------|--0--------0--------|

---
       |-3-| |-3-| |-3-| |-3-| |-3-| |-3-|    |-3-| |-3-| |-3-| |-3-| |-3-|         
  Q    S S S S S S S S S S S S S S S S S S    S S S S S S S S S S S S S S S Q.      
-------------------------------------------|---------------------------------------|
-------------------------------------------|---------------------------------------|
--2----------------------------------------|--------------------------------2------|
--2----1-2-3---3---2---1-2-3---2-------0---|------------------------0---2----------|
--0----------0---0---0-------0---0-2-3---0-|--3-2-0---0-2---2-0-2------------------|
-------------------------------------------|--------0-----0-------0---0---0--------|


  S S S S S S S S S S S S S S S S    S S S S S S S S S S S S S S S S  
----------------------------------|--------------------------0-------|
--1-----------1---3-----------1---|--0-------3-------1-----------0---|
----2-----2---------2-------2---2-|----1---------1-----2-------------|
------2-----2---2-----3---3-------|------2-----2---2-----2-----2---2-|
--0-----0---------0-----0---------|------------------0-----0---------|
----------------------------------|--4-----4-------------------------|


  S S S S S S S S S S S S S S S S    S S S S S S S S S S S S S S S S  
--0-------------------------------|----------------------------------|
--1---------------3---1---0-------|--1-------0-----------------------|
--2---------------------------2---|--------------2---1-------------1-|
----3-----2---0-----3---0---1---2-|----2---------------0---------0---|
------0---------------------------|------0---------------------2-----|
--1-----1---1---1-----------------|--0-----0---0---0-----4-0-4-------|


  S S S S S S S S S S S S S S S S    S S S S S S S S S S S S S  S S S  
--------------0-------------------|------------------0-------1p---0---|
--1-------1-------3-------1-------|--0-------3---------1--------------|
----2---------------2---------2---|----0---------0-------0------0---0-|
------2-----2---2-----3-----3---3-|------0-----0---0------------------|
--0-----0---------0-----0---------|------------------3-----3----------|
----------------------------------|--3-----3--------------------------|


  S S S S S S S S E  S E  S E     Q    Q    E  E  E  E   
-------------------------------|------------------------|
--3---1---0-------0------------|------------------------|
----2---------2---1------------|--2------------------1--|
--------3---0------------------|--2----0-------2--4-----|
----------------0--------------|--0---------3-----------|
------------------0----0----0--|------------------------|


  S S S S S S S S S S S S S S S S    S S S S S S S S S S S S S S S S  
----------------------------------|----------------------------------|
------1---3-----------0---1-------|------1---3-----------0---1-------|
------2---4-----------1---2-------|------2---4-----------1---2-------|
----------------------------------|----------------------------------|
--0---0---0---0---0---0---0---0---|--0---0---0---0---0---0---0---0---|
----------------------------------|----------------------------------|


  S S S S S S S S S S S S S S S S    E  E  E  E  Q    Q     
----------------------------------|--1--0------------------|
------1---3-----------3---5-------|--3-----3--1--1----0----|
------2---4-----------4---5-------|--------------2----1----|
----------------------------------|-------------------2----|
--0---0---0---0---0---0---0---0---|--0--------0------------|
----------------------------------|------------------------|


  S S S S S S S S S S S S S S S S    S S S S S S S S S S S S S S S S  
----------------------------------|----------------------------------|
------1---3-----------0---1-------|------1---3---0---1-------3-------|
------2---4-----------1---2-------|------2---4-------2-------4-------|
----------------------------------|----------------------------------|
--0---0---0---0---0---0---0---0---|--0---0---0---0---0---0---0---0---|
----------------------------------|----------------------------------|


  S S S S S S S S S S S S S S S S    H        Q    Q     
--------------------------5-------|--5--------4----7----|
------5---6---3---5-------5-------|---------------------|
------5---7---4---5---------------|--5--------4---------|
----------------------------------|---------------------|
--0---0---0---0---0---0---0---0---|--0------------------|
----------------------------------|-----------0---------|


    S S S S S S S S S S S S S S S S    S S S S S S S S S S S S S S S S  
|---5---0---1-------0---------------|--0-------------------------------|
|-------------0-1-------1---3---1-3-|------3-1-3-0---1-1-----1-0---0-3-|
|*----5---2-------2---1---2---------|----2---------2-------2-----1-----|
|*----------------------------2-----|----------0---------2-------------|
|---0-------0-------0---------------|----------------------------------|
|---------------------------3-------|--1---------------0-------0-------|

                                  1.____________________________________
  S S S S S S S S S S S S S S S S    S S S S S S S S S S S S S S S S    
----------------------3-1-0-----0-|--5---5-3-1------------------------||
--------1-3-1-0-1-3-----------1---|----3-------3---1-1-----1-0-----0--||
--2---2-------------0-------0-----|--------------2-------2-------1---*||
----2-----0-----------------------|--3-------0---------2-------2-----*||
--0-----------------------3-------|-----------------------------------||
------------------3---------------|------------------0-------0--------||

2._________________________________
  rall.----------------------------
  S S S S S S S S S S S S S S S S    H.           Q       Q      
--5---5-3-1-----------------------|--------------------|-------||
----3-------3---1-1-----1-0-----0-|--------------------|-------||
--------------2-------2-------1---|--2-----------------|-------||
--3-------0---------2-------2-----|--2-----------------|-------||
----------------------------------|--0------------0----|--L----||
------------------0-------0-------|--------------------|-------||




Duration Legend
---------------
W - whole
H - half
Q - quarter
E - 8th
S - 16th
T - 32nd
X - 64th
. - note dotted
|-n-|  - n-tuplets


Tablature Legend
----------------
L - tied note
x - dead note
g - grace note
(n) - ghost note
> - accentuded note
NH - natural harmonic
AH - artificial harmonic
TH - tapped harmonic
SH - semi harmonic
PH - pitch harmonic
h - hammer on
p - pull off
b - bend
br - bendRelease
pb - preBend
pbr - preBendRelease
brb - bendReleaseBend
\n/ - tremolo bar dip
\n - tremolo bar dive
-/n - tremolo bar Release up
/n\ - tremolo bar inverted dip
/n - tremolo bar return
-\n - tremolo bar Release down
S - shift slide
s - legato slide
/ -  slide into from below or out of upwards
\ -  slide into from above or out of downwards
~ - vibrato
W - wide vibrato
tr - trill
TP - tremolo picking
T - tapping
S - slap
P - pop
< - fade in
^ - brush up
v - brush down
Login or Register to remove this ad.

1 comment on Shadowlord

Such a good tab. Fairly easy

5

Such a good tab. Fairly easy to play (apart from that ridiculously fast part marked as triplets) and sounds quite impressive.