Ads

Emil - Sacrifice (Nier) Guitar Tab

Submitted: May 07, 2017 by CleverMonkey

5
Average: 5 (6 votes)
Download | Listen
Game: Nier
Composer(s): Keiichi Okabe, Kakeru Ishihama, Keigo Hoashi, Takafumi Nishimura
Style: Arrangement, Fingerstyle

AutoScroll: Slow | Medium | Fast
From NieR: Automata
Emil Sacrifice (Guitar Fingerstyle)
Composers Keiichi Okabe, Keigo Hoashi, Kuniyuki Takahashi
Tab by Clever Monkey
08.04.2017

Standard Tuning
Tempo = 75
4/4 Time

E |--------3-----0-----3-------|--------2-----------2-------|--------3-----0-----3-------|--------3-----2-----5-------|
B |-----0--0--0-----0-----0----|-----0--0--0--3--0-----0----|-----1--1--1-----1-----1----|-----3--3--3-----3-----3----|
G |----------------------------|----------------------------|----------------------------|--------------2-------------|
D |--2-------------------------|--0-------------------------|----------------------------|--0-------------------------|
A |----------------------------|----------------------------|--3-------------------------|----------------------------|
E |----------------------------|----------------------------|----------------------------|----------------------------|

 
E||---3--------3--3-------------|--------2-----------3s-10---|--10----------------8--7--3-----------------3-------|
B||------0-----------0-----0----|-----0--0--0--3--0----------|--------------------------------1-------------------|
G||o--------0-----------0-------|----------------------------|--------------9-----------------------0-------------|
D||o--2-----------2-------------|--0-----------0-------------|--------10------------------------------------------|
A||-----------------------------|----------------------------|----------------------------------------------------|
E||-----------------------------|----------------------------|--8-------------------------------------------------|

E |--------3-----2-----5-------|--3--------3--3-------------|--------2-----------3-------|--0-------------------------|
B |-----3--3--3-----3-----3----|-----0-----------0-----0----|-----0--0--0--3h-0-----3----|-----------12-12------------|
G |--------------2-------------|--------0-----------0-------|----------------------------|--------9-----------9-------|
D |--0-----------0-------------|--2-----------2-------------|--0-----------0-------------|-----10----------10----10---|
A |----------------------------|----------------------------|----------------------------|----------------------------|
E |----------------------------|----------------------------|----------------------------|--8-----------8-------------|

  ___________________________    _______________ 
1|                             2|
E |--5-----3-----2-----5------||--5--3--2-------|-----------7--8-------------|
B |-----3--3--3-----3-----3---||--0--3-----4----|--5--7--8-----------10------|
G |--------------2-----------o||----------------|-----------------9-----9----|
D |--0-----------------------o||--------1-------|--------------7-------------|
A |---------------------------||----------------|--7-------------------------|
E |---------------------------||----------------|----------------------------|


E |-----------12-10-8--7-------|--------7-----5-----0-------|-----------5--7-----5-------|-----------7--8-------------|
B |--7--5--7--------------10---|--8-------------------------|--7--5--7-------------------|--5--7--8-----------10------|
G |--------7-----0-------------|-----5----------------------|----------------------------|-----------------9-----9----|
D |--0-----------------0-------|----------------------------|--0-------------------------|--------------7-------------|
A |----------------------------|--7-----------0-------------|--------------6-------------|--7-------------------------|
E |----------------------------|----------------------------|----------------------------|----------------------------|


E |-----------12-10-8--7-------|--------12----------10-8----|--10---|
B |--7--5--7--------------10---|--8-----------8-----8--8----|--8----|
G |--------7-----0-------------|--------------------7-------|--0----|
D |--0-----------------0-------|--10-10----10----10---------|-------|
A |----------------------------|----------------------------|-------|
E |----------------------------|----------------------------|-------|


E |--------12----------10-8----|--7-------------|--------3-----0-----3-------|
B |--8-----8-----------12-10---|--8-----7-------|-----0--0--0-----0-----0----|
G |----------------------------|--------8-------|----------------------------|
D |--10------------------------|--0-------------|--2-------------------------|
A |----------------------------|-----------9----|----------------------------|
E |----------------------------|----------------|----------------------------|


E |--------2-----------2-------|--------3-----0-----3-------|--------3-----2-----5-------|--3----||
B |-----0--0--0--3--0-----0----|-----1--1--1-----1-----1----|-----3--3--3-----3-----3----|--0----||
G |----------------------------|----------------------------|--------------2-------------|--0----||
D |--0-------------------------|----------------------------|--0-------------------------|-------||
A |----------------------------|--3-------------------------|----------------------------|-------||
E |----------------------------|----------------------------|----------------------------|--0----||


Login or Register to remove this ad.

1 comment on Emil - Sacrifice

Very nice!

5

Super nice Tab! Feels very good to play :)