Login or Register to remove this ad.

Emil - Sacrifice (Nier) Guitar Tab

Submitted: Dec 08, 2010 by hslesperance (Last updated: Aug 10, 2012)

5
Average: 5 (1 vote)
Download | Listen
Game: Nier
Composer(s): Keiichi Okabe, Kakeru Ishihama, Keigo Hoashi, Takafumi Nishimura
Style: 2 or more instruments, Transcription

AutoScroll: Slow | Medium | Fast
Emil - Sacrifice
Nier
Composed by Keiichi Okabe, Kakeru Ishihama, Keigo Hoashi, Takafumi Nishimura
Tabbed by hslesperance
12/8/10

Guitar 3 - Drop C Tuning (CADGBe)
Other Guitars - Standard Tuning




Guitar 1 - Melody

  W             W             W             H.        Q
|-------------|-------------|-------------|---------------|
|-------------|-------------|-------------|---------------|
|-------------|-------------|-------------|-----------7---|
|-------------|-------------|-------------|---------------|
|-------------|-------------|-------------|---------------|
|-------------|-------------|-------------|---------------|


    Q.     E H       +Q    H    E  E    Q.     S S H        H      Q  Q
||-----------------|--------------10-|-10------8-7-------|---------7-----|
||o-8------8-8-----|-(8)--------8----|-------------8-----|-10------------|
||-----------------|-----------------|-------------------|------------7--|
||-----------------|-----------------|-------------------|---------------|
||o----------------|-----------------|-------------------|---------------|
||-----------------|-----------------|-------------------|---------------|


  Q.     E H       +Q    H    E E   Q.     E H        Q   Q  Q  Q
|----------------|----------------|--------7-7-----|---------------|
|-8------8-8-----|-(8)--------8---|----------------|-10---8--7-----|
|----------------|--------------7-|-9--------------|------------7--|
|----------------|----------------|----------------|---------------|
|----------------|----------------|----------------|---------------|
|----------------|----------------|----------------|---------------|


  Q.     E H       +Q    H    E  E    Q.     S S H        H      Q  Q
|----------------|--------------10-|-10------8-7-------|---------7------|
|-8------8-8-----|-(8)--------8----|-------------8-----|-10-------------|
|----------------|-----------------|-------------------|------------7---|
|----------------|-----------------|-------------------|----------------|
|----------------|-----------------|-------------------|----------------|
|----------------|-----------------|-------------------|----------------|


  Q.     E H       +Q    H    E E   Q.     E H        Q  Q  Q  Q
|----------------|----------------|--------7-7-----|--------------|
|-8------8-8-----|-(8)--------8---|----------------|-10--8--7-----|
|----------------|--------------7-|-9--------------|-----------8--|
|----------------|----------------|----------------|--------------|
|----------------|----------------|----------------|--------------|
|----------------|----------------|----------------|--------------|


   E E E E  Q.   E    E E E  E  E E  E  E    Q   Q   Q.   E    E E E  E  Q   Q
|--------7--8------|--------12-10-8-------|-----------------|------------7------|
|----7-8-----------|--7---7---------12-10-|--8--12--10------|--7---7-10-----10--|
|--9-------------9-|----9-----------------|---------------9-|----9--------------|
|------------------|----------------------|-----------------|-------------------|
|------------------|----------------------|-----------------|-------------------|
|------------------|----------------------|-----------------|-------------------|


   E E E E  Q.   E    E E E  E  E E  E  E    Q    H            E   E      H.               Q
|--------7--8------|--------12-10-8-------|------12-----------10---8---|-10-------------------------|
|----7-8-----------|--7---7---------12-10-|--8-------------------------|----------------------------|
|--9-------------9-|----9-----------------|----------------------------|----------------------------|
|------------------|----------------------|----------------------------|----------------------------|
|------------------|----------------------|----------------------------|----------------------------|
|------------------|----------------------|----------------------------|----------------------------|


   Q    H            E   E      H        H       W             +Q    H.         W             H.        Q
|------12-----------10---8---|-----------------|-------------|----------------|-------------|---------------||
|--8-------------------------|-12-------10-----|-8-----------|-(8)------------|-------------|--------------o||
|----------------------------|-----------------|-------------|----------------|-------------|-----------7---||
|----------------------------|-----------------|-------------|----------------|-------------|---------------||
|----------------------------|-----------------|-------------|----------------|-------------|--------------o||
|----------------------------|-----------------|-------------|----------------|-------------|---------------||




Guitar 2 - Strings

       <                  <                  <                   <
  Q    H       Q     Q    H       Q     Q    H       Q     Q     Q     Q    Q
|-----15-----------|-----14-----------|-----15-----------|------15----14---------|
|-----15-----------|-----15-----------|-----15-----------|------15---(15)--------|
|------------------|------------------|------------------|-----------------------|
|------------------|------------------|------------------|-----------------------|
|------------------|------------------|------------------|-----------------------|
|------------------|------------------|------------------|-----------------------|

          <                    <
    Q     H       Q      Q     H       Q       Q     H         Q      Q    Q     Q    Q
||-------15-----------|-------14------------|-------15-------------|------15----14---------|
||o------15-----------|-------15------------|-------15-------------|------15---(15)--------|
||--------------------|---------------------|----------------------|-----------------------|
||--------------------|---------------------|----------------------|-----------------------|
||o-------------------|---------------------|----------------------|-----------------------|
||--------------------|---------------------|----------------------|-----------------------|

       <                  <                  <                   <
  Q    H       Q     Q    H       Q     Q    H       Q     Q     Q     Q    Q
|-----15-----------|-----14-----------|-----15-----------|------15----14---------|
|-----15-----------|-----15-----------|-----15-----------|------15---(15)--------|
|------------------|------------------|------------------|-----------------------|
|------------------|------------------|------------------|-----------------------|
|------------------|------------------|------------------|-----------------------|
|------------------|------------------|------------------|-----------------------|

       <                  <                  <                   <
  Q    H       Q     Q    H       Q     Q    H       Q     Q     Q     Q    Q
|-----15-----------|-----14-----------|-----15-----------|------15----14---------|
|-----15-----------|-----15-----------|-----15-----------|------15---(15)--------|
|------------------|------------------|------------------|-----------------------|
|------------------|------------------|------------------|-----------------------|
|------------------|------------------|------------------|-----------------------|
|------------------|------------------|------------------|-----------------------|

        <                    <                   <              <
  Q     H       Q      Q     H       Q     Q     H       Q      H       Q    Q
|------15-----------|-------14-----------|------15-----------|-12------11--------|
|------15-----------|-------15-----------|------15-----------|-12-----(12)-------|
|-------------------|--------------------|-------------------|-------------------|
|-------------------|--------------------|-------------------|-------------------|
|-------------------|--------------------|-------------------|-------------------|
|-------------------|--------------------|-------------------|-------------------|


  Q   E  E  Q       Q          +Q     H          Q      Q    Q    Q.        E      H         H
|-------14-15------17-------|-(17)---19---------------|-----19---17--------15---|-14-----------------|
|---------------------------|-------------------------|-------------------------|--------------------|
|---------------------------|-------------------------|-------------------------|--------------------|
|---------------------------|-------------------------|-------------------------|--------------------|
|---------------------------|-------------------------|-------------------------|--------------------|
|---------------------------|-------------------------|-------------------------|--------------------|


  Q   E  E  Q       Q          +Q     H           Q
|-------14-15------17-------|-(17)---19----------------|
|---------------------------|--------------------------|
|---------------------------|--------------------------|
|---------------------------|--------------------------|
|---------------------------|--------------------------|
|---------------------------|--------------------------|


  Q   H     E  E    Q    H     E  E    Q    H     E   E      H     H
|----20----19-17-|------22----19-17-|------20----19--17---|--------------|
|----------------|-20---------------|-20------------------|-20----19-----|
|----------------|------------------|---------------------|--------------|
|----------------|------------------|---------------------|--------------|
|----------------|------------------|---------------------|--------------|
|----------------|------------------|---------------------|--------------|

       <                    <
  Q    H       Q      Q     H        Q     Q    H       Q     Q     Q     Q    Q
|-----15-----------|-------14------------|-----15-----------|------15----14---------||
|-----15-----------|-------15------------|-----15-----------|------15---(15)-------o||
|------------------|---------------------|------------------|-----------------------||
|------------------|---------------------|------------------|-----------------------||
|------------------|---------------------|------------------|----------------------o||
|------------------|---------------------|------------------|-----------------------||




Guitar 3 - Cello

  E E  E E E E E E   E E  E E E E E E   E E  E E E E E E   E  E  E E   E  E E E
|------------------|------------------|------------------|-----------------------|
|------------------|------------------|------------------|-----------------------|
|------------------|------------------|------------------|------------------2----|
|------5---2---5---|------4-------4---|------5---2---5---|-------5-----4---------|
|---2----2---2---2-|---2----2-5-2---2-|---3----3---3---3-|----5----5------5---5--|
|-4----------------|-2----------------|-0----------------|-2---------------------|


    E E  E E E E E E   E E  E E E E E E   E E  E E E E E E   E  E  E E   E  E E E
||-------------------|------------------|------------------|-----------------------|
||o------------------|------------------|------------------|-----------------------|
||-------------------|------------------|------------------|------------------2----|
||-------5---2---5---|------4-------4---|------5---2---5---|-------5-----4---------|
||o---2----2---2---2-|---2----2-5-2---2-|---3----3---3---3-|----5----5------5---5--|
||--4----------------|-2----------------|-0----------------|-2---------------------|


  E E  E E E E E E   E E  E E E E E E   E E  E E E E E E   E  E  E E   E  E E E
|------------------|------------------|------------------|-----------------------|
|------------------|------------------|------------------|-----------------------|
|------------------|------------------|------------------|------------------2----|
|------5---2---5---|------4-------4---|------5---2---5---|-------5-----4---------|
|---2----2---2---2-|---2----2-5-2---2-|---3----3---3---3-|----5----5------5---5--|
|-4----------------|-2----------------|-0----------------|-2---------------------|


  E E  E E E E E E   E E  E E E E E E   E E  E E E E E E   E  E  E E   E  E E E
|------------------|------------------|------------------|-----------------------|
|------------------|------------------|------------------|-----------------------|
|------------------|------------------|------------------|------------------2----|
|------5---2---5---|------4-------4---|------5---2---5---|-------5-----4---------|
|---2----2---2---2-|---2----2-5-2---2-|---3----3---3---3-|----5----5------5---5--|
|-4----------------|-2----------------|-0----------------|-2---------------------|


  E  E  E E E E E E    E  E  E E E E E E   E  E  E E E E E E    H      +E  E E E
|-------------------|--------------------|-------------------|-------------------|
|-------------------|--------------------|-------------------|-------------------|
|-------------------|--------------------|-------------------|-------------4-2---|
|-------5---2---5---|--------4-------4---|-------5---2---5---|-----------------5-|
|----2----2---2---2-|-----2----2-5-2---2-|----3----3---3---3-|--2------(2)-------|
|-4-----------------|--2-----------------|-0-----------------|-------------------|


  H         E. +E     S S S     Q.       E  Q    Q      Q.     E  E. +E  S  S S    Q.      E Q   Q
|---------------------------|-------------------------|-------------------------|--------------------|
|---------------------------|-------------------------|-------------------------|--------------------|
|-----------2--(2)----0-----|------------2------------|-5------0--2--(2)-0------|--------------------|
|-2---------------------4-2-|---0-----------5----0----|---------------------4-2-|--0-------------1---|
|---------------------------|-------------------------|-------------------------|----------3-2-------|
|---------------------------|-------------------------|-------------------------|--------------------|


  H         E. +E     S S S     Q.       Q.       Q
|---------------------------|--------------------------|
|---------------------------|--------------------------|
|-----------2--(2)----0-----|--------------------------|
|-2---------------------4-2-|---0--------4--------0----|
|---------------------------|--------------------------|
|---------------------------|--------------------------|


  W                 W                  H.        +E   S S    H     Q  Q
|----------------|------------------|---------------------|--------------|
|----------------|------------------|---------------------|--------------|
|----------------|------------------|---------------------|--------------|
|----------------|------------------|---------------------|--0-----------|
|-3--------------|--2---------------|--0---------(0)--2-3-|--------2-----|
|----------------|------------------|---------------------|-----------6--|


  E E  E E E E E E   E E  E E E E E E   E E  E E E E E E   E  E  E E   E  E E E
|------------------|------------------|------------------|-----------------------||
|------------------|------------------|------------------|----------------------o||
|------------------|------------------|------------------|------------------2----||
|------5---2---5---|------4-------4---|------5---2---5---|-------5-----4---------||
|---2----2---2---2-|---2----2-5-2---2-|---3----3---3---3-|----5----5------5---5-o||
|-4----------------|-2----------------|-0----------------|-2---------------------||




Guitar 4 - Piccolo

      <             <             <              <
  Q   H    Q    Q   H    Q    Q   H    Q    Q    H    Q
|-------------|-------------|-------------|---------------|
|----12-------|----12-------|----12-------|---------------|
|-------------|-------------|-------------|-----14--------|
|-------------|-------------|-------------|---------------|
|-------------|-------------|-------------|---------------|
|-------------|-------------|-------------|---------------|

         <                 <                 <                  <
    Q    H      Q     Q    H    Q       Q    H        Q     Q   H     Q
||-----------------|-----------------|-------------------|---------------|
||o-----12---------|------12---------|------12-----------|---------------|
||-----------------|-----------------|-------------------|-----14--------|
||-----------------|-----------------|-------------------|---------------|
||o----------------|-----------------|-------------------|---------------|
||-----------------|-----------------|-------------------|---------------|

       <                 <               <                <
  Q    H      Q     Q    H    Q     Q    H      Q     Q   H     Q
|----------------|----------------|----------------|---------------|
|-----12---------|------12--------|-----12---------|---------------|
|----------------|----------------|----------------|-----14--------|
|----------------|----------------|----------------|---------------|
|----------------|----------------|----------------|---------------|
|----------------|----------------|----------------|---------------|

       <                 <                 <                  <
  Q    H      Q     Q    H    Q       Q    H        Q     Q   H     Q
|----------------|-----------------|-------------------|----------------|
|-----12---------|------12---------|------12-----------|----------------|
|----------------|-----------------|-------------------|-----14---------|
|----------------|-----------------|-------------------|----------------|
|----------------|-----------------|-------------------|----------------|
|----------------|-----------------|-------------------|----------------|

       <                 <               <
  Q    H      Q     Q    H    Q     Q    H      Q     W
|----------------|----------------|----------------|--------------|
|-----12---------|------12--------|-----12---------|--------------|
|----------------|----------------|----------------|--------------|
|----------------|----------------|----------------|--------------|
|----------------|----------------|----------------|--------------|
|----------------|----------------|----------------|--------------|


   H        H         H         Q    Q
|------------------|-----------12---------|
|-12-------13------|-15-------------15----|
|------------------|----------------------|
|------------------|----------------------|
|------------------|----------------------|
|------------------|----------------------|


   Q   Q   H         H         Q   Q
|-----12----------|-------------------|
|-13------13------|-----------12------|
|-----------------|-14------------14--|
|-----------------|-------------------|
|-----------------|-------------------|
|-----------------|-------------------|


   H        H         H         Q    Q
|------------------|-----------12---------|
|-12-------13------|-15-------------15----|
|------------------|----------------------|
|------------------|----------------------|
|------------------|----------------------|
|------------------|----------------------|


   H        H                   W
|----------------------------|----------------------------|
|-13-------------------------|----------------------------|
|----------------------------|----------------------------|
|----------------------------|----------------------------|
|----------------------------|----------------------------|
|----------------------------|----------------------------|


   H        H                   W
|----------------------------|-----------------|
|-13-------------------------|-----------------|
|----------------------------|-----------------|
|----------------------------|-----------------|
|----------------------------|-----------------|
|----------------------------|-----------------|

      <               <              <              <
  Q   H    Q     Q    H     Q    Q   H    Q    Q    H    Q
|-------------|----------------|-------------|---------------||
|----12-------|------12--------|----12-------|--------------o||
|-------------|----------------|-------------|-----14--------||
|-------------|----------------|-------------|---------------||
|-------------|----------------|-------------|--------------o||
|-------------|----------------|-------------|---------------||




Guitar 5 - Violin / Measures 27 - 30 / 1:24 - 1:36

   E E  E E S S S S  S S S S    E  E E E S S S S S S S S
|-----------8-7-5------------|-----------5----------------|
|-------5-8-------8--7-5-----|-------7-8---8-7-5----------|
|----5-------------------7-5-|--4--7-------------7-4------|
|----------------------------|-----------------------7-5--|
|----------------------------|----------------------------|
|----------------------------|----------------------------|


   E E  E E S S S S  S S S S    E E E E  Q  Q
|-----------5----------------|-----------------|
|---------5---8-7-5----------|-----------------|
|--------------------7-5-4-5-|--7---4-7--4-----|
|----5--7--------------------|----5---------7--|
|--7-------------------------|-----------------|
|----------------------------|-----------------|

W - whole
H - half
Q - quarter
E - 8th
S - 16th
+ - note tied to previous
. - note dotted

< - volume swell
Login or Register to remove this ad.