Login or Register to remove this ad.

Faltering Prayer, Starry Sky (NieR: Automata) Guitar Tab

Submitted: Mar 16, 2018 by Ttegdap (Last updated: Mar 23, 2018)

5
Average: 5 (2 votes)
Download | Listen
Game: NieR: Automata
Composer(s): Keiichi Okabe, Keigo Hoashi, Kuniyuki Takahashi
Style: Arrangement, Fingerstyle, Transcription
Series: NieR

AutoScroll: Slow | Medium | Fast
Faltering Prayer, Starry Sky (Solo)
From Nier:Automata
Composed by Keiichi Okabe
Arranged by Ttedgap
Arrangement based on Enver's Piano Collections

Standard Tuning
Tempo - 50

   H     H       H     H       H     Q.    S  S    H     H       H     Q    Q
E|-5-----3-----|-------------|-3-----1--------1--|-------------|-----------------|
B|-3-----------|-6-----4-----|-1-----------1-----|-4-----3-----|-1-----3----1----|
G|-3-----------|-3-----------|-2-----------------|-3-----------|-0-----2---------|
D|-5-----------|-5-----------|-3-----------------|-3-----------|-1-----0---------|
A|-------------|-3-----------|-------------------|-1-----------|-0---------------|
E|-------------|-------------|-------------------|-------------|-----------------|


   Q    Q    Q    Q      H     H       H     H       Q    Q    Q    Q      H     E   E   E   E 
E|-----------3----5----|-6-----5-----|-3-----2-----|-5---------3---------|-----------------------|
B|-1---------3---------|-3-----2-----|-3-----1-----|-3---------3---------|-6-----4---------------|
G|-0----3----3---------|-0-----0-----|-2-----2-----|-3---------3---------|-----------------------|
D|-0---------3---------|-2-----------|-0-----------|-5----4----3---------|-5---------5-------5---|
A|---------------------|-------0-----|-------------|----------------7----|-6-------------6-------|
E|-3-------------------|-------------|-------------|---------------------|-----------------------|


   H     Q    E   E     H     Q    E   E     H     Q    Q      Q    Q    Q    Q
E|-3-----1------------|--------------------|-----------------|-----------3----5----|
B|-1-----1------------|-4-----3------------|-1-----3---------|-1---------3---------|
G|-2-----2------------|-3-----3------------|-0----------5----|-0----3----0---------|
D|-3----------3-------|-3-----3------------|-2-----4----4----|-0-------------------|
A|----------------3---|-1----------0---1---|-3-----5----5----|---------------------|
E|-------1------------|--------------------|-----------------|-3----2----1---------|


   H     H       H.     E   E     W        E   E   E   E   E   E   Q      E   E   E   E   H
E|-6-----5-----|-3--------------|-2------|-5---------------3------------|-----------------------|
B|-3-----2-----|-3----------3---|-4------|---------3---------------3----|-6---------------4-----|
G|-0-----0-----|-2------2-------|-5------|-----3-------3-------3--------|---------3-------3-----|
D|-2-----------|-0--------------|-0------|-5----------------------------|-----5-------5---------|
A|-------0-----|----------------|--------|------------------------------|-3---------------------|
E|-------------|----------------|--------|------------------------------|-----------------------|


   E   E   E   E   E   E   E   E     E   E   E   E   E   E   E      E   E   E   E   E   E   E   E
E|-3---------------1---------------|------------------------------|---------------------------------|
B|---------1-----------------------|-4---------------3------------|-1---------------3-------1-------|
G|-----3-------3---2---------------|---------3-------3------------|---------0-----------2-------2---|
D|-----------------3-----------3---|-----3-------3-------3--------|-----1-------1---0---------------|
A|-------------------------3-------|-1-----------------------1----|-0-------------------------------|
E|-1-------------------1-----------|------------------------------|---------------------------------|


   E   E   E   E   E   E   E   E     E   E   E   E   E   E   E   E     E   E   E   E   E   E   E   E
E|-----------------3-------5-------|-6---------------5---------------|-3---------------2---------------|
B|-1-------------------------------|---------------------------------|---------3-----------4-----------|
G|---------3---------------0-------|---------0---3---2-----------2---|-----2-------2-----------5-------|
D|-----0-------0-------0-------0---|-----0-------------------2-------|-0---------------0---------------|
A|---------------------------------|---------------------4-----------|-----------------------------0---|
E|-3---------------1---------------|-0-------------------------------|---------------------------------|


   E   E   E   E   E   E   E   E     E   E   E   E   E   E   E   E     W        H     H 
E|-3-------------------------------|---------------------------------|-3------|-5-----3-----|
B|---------------------------------|-----------------3-----------3---|-3------|-3-----------|
G|---------------------------------|-3-----------3-----------3-------|-3------|-3-----------|
D|-5---------------5-----------5---|---------5-----------5-----------|-5------|-3-----------|
A|-------------5-----------5-------|-----5---------------------------|-5------|-------------|
E|-----3---6-----------6-----------|---------------------------------|-3------|-------------|


   H     H       H     Q.    S  S    H     H       H     Q    Q      Q    Q    Q    Q
E|-------------|-3-----1--------1--|-------------|-----------------|-----------3----5----|
B|-6-----4-----|-1-----------1-----|-4-----3-----|-1-----3----1----|-1---------3---------|
G|-3-----------|-2-----------------|-3-----------|-0-----2---------|-0----3----3---------|
D|-5-----------|-3-----------------|-3-----------|-1-----0---------|-0---------3---------|
A|-3-----------|-------------------|-1-----------|-0---------------|---------------------|
E|-------------|-------------------|-------------|-----------------|-3-------------------|


   H     H       H     H       Q    Q    Q    Q      H     E   E   E   E     H     Q    E   E
E|-6-----5-----|-3-----2-----|-5---------3---------|-----------------------|-3-----1------------|
B|-3-----2-----|-3-----1-----|-3---------3---------|-6-----4---------------|-1-----1------------|
G|-0-----0-----|-2-----2-----|-3---------3---------|-----------------------|-2-----2------------|
D|-2-----------|-0-----------|-5----4----3---------|-5---------5-------5---|-3----------3-------|
A|-------0-----|-------------|----------------7----|-6-------------6-------|----------------3---|
E|-------------|-------------|---------------------|-----------------------|-------1------------|


   H     Q    E   E     H     Q    Q      Q    Q    Q    Q      H     H       H.     E   E 
E|--------------------|-----------------|-----------3----5----|-6-----5-----|-3--------------|
B|-4-----3------------|-1-----3---------|-1---------3---------|-3-----2-----|-3----------3---|
G|-3-----3------------|-0----------5----|-0----3----0---------|-0-----0-----|-2------2-------|
D|-3-----3------------|-2-----4----4----|-0-------------------|-2-----------|-0--------------|
A|-1----------0---1---|-3-----5----5----|---------------------|-------0-----|----------------|
E|--------------------|-----------------|-3----2----1---------|-------------|----------------|

   H        W 
E|-2------|-L---------------------|
B|-4------|-----------------------|
G|-5------|-----------------------|
D|-0------|-----------------------|
A|--------|-----------------------|
E|--------|-----------------------|

Login or Register to remove this ad.