Ads

Dependent Weaking (NieR: Automata) Guitar Tab

Submitted: Aug 12, 2019 by guitarsvd (Last updated: Sep 04, 2019)

5
Average: 5 (2 votes)
Download | No audio :(
Game: NieR: Automata
Composer(s): Keiichi Okabe, Keigo Hoashi, Kuniyuki Takahashi
Style: Arrangement, Artificial harmonics, Fingerstyle, Natural harmonics, Tremolo
Series: NieR

Click here for a video example.

AutoScroll: Slow | Medium | Fast
                              Dependent Weakling                                


                                                               Cecil (GuitarSVD)
Track 1



     S S S S S S S S S S S S    S S S S S S S S S S S S  
E||--------------------------|--------------------------|
B||--5-5-5-5-5-5-5-6-3-5-1-0-|--5-5-5-5-5-5-5-6-3-5-1-0-|
G||--------------------------|--------------------------|
D||--2-2-2-2-2-2-2-----------|--2-2-2-2-2-2-2-----------|
A||--------------------------|--------------------------|
E||--0-----------------------|--0-----------------------|


  S S S  S S  S S S S S S S    S S S  S S  S  S  S  S  S  S  S  
-----------8-10-0-0-1-0-----|-----------8-10-12-13-12-10-17-16-|
------8-10-8-10-0-0-1-0-3-1-|------8-10-8-10-------------------|
--9-9-9--9--------------2-0-|--9-9-9--9------------------------|
--9-9-----------------------|--9-9-----------------------------|
----------------------------|----------------------------------|
--0-------------0-----------|--0--------------0----------------|


   S  S  S  S S S S  S S S S S    S  S S S  S  S  S  S  S  S  S  S  
--12----------0---0----8-7-0---|--0----8-7-12-12-12-13-12-10-17-16-|
--------13-12-------10---------|----10-----------------------------|
-----14---------7------------7-|-----------------------------------|
-------------------------------|-----------------------------------|
---0--------0-----0----0---0---|--0------0--------0-----0-----0----|
-------------------------------|-----------------------------------|


   S  S S S  S S S S S S S S    E  S E  S S Q    S    E  S E  S S Q    S  
--12-10-8-7------0-1---0-----|---------------------|---------------------|
--10--------10-9-0-1-3-0-1-3-|---------------------|------------1--------|
---------------------2---0-2-|--2------------------|---------------------|
-----------------------------|--2--2------2--------|--3---------3--------|
---0-------------------------|--0--0------0--------|--3--3---------------|
-----------------------------|---------------------|--1--1---------------|


  E  S E  S S Q    T T T T    E  S E  S S Q    S    E  S E  S S Q    S  
---------------------------|---------------------|---------------------|
--0------------------------|---------------------|---------------------|
---------------------------|---------------------|--2------------------|
--2--2------2------2-1-0---|------------2--------|--2--2---------------|
------------2------------4-|--2------------------|--4--4------4--------|
--3--3------3--------------|--4--4------4--------|------------0--------|


  E  S E  S S Q    S    E  S E  S S E  S S S    Q.     S S S S S S  
---------------------|-----------------------|-----------------0---|
---------------------|-----------------------|-------------3-----3-|
--3---------2--------|--0---------0----0-----|---------2-----2-----|
--2--2------2--------|--3----------------3-2-|--3--------3---------|
--4--4------0--------|--5--5------5----------|--5------------------|
---------------------|-----------------------|---------------------|


     |---7---| 7 7                                            
  E  S S S S S S S Q.     E.  E.     S S S S S S S S S S S S  
--1-----------------------1-------|--------1-----0-----------|
-----------3-----3-L--------------|--0-------0-----0---0-----|
---------1-----1--------------2---|----1-------1-L---1-L-1---|
-------3-----3----------------3---|------2-L---------------2-|
--2--2----------------------------|--2-----------------------|
----------------------------------|--------------------------|


  E  S S S S S S S S E     Q.     S S S S S S    E.  E.  E.  E.   
------------------------|---------------------|--0---------------|
--3------0-1-L----------|---------1-----3-----|--0---------------|
-------2-------2--------|--2--------2-----2---|----------2-------|
-----2-----------2------|--2------L---2-L---2-|------0---L---0---|
--0----------------3-0--|--L------------------|------------------|
------------------------|---------------------|--2---------------|


  E  S S S S E.  E.     E  S S S S E.  E.     Q.     E  E  E   
-----------0-L-------|---------------------|------------------|
---------0---0-------|-------------0-------|------------------|
--L----2---------2---|--2--------2-L---2---|--1------------1--|
-----0---------------|---------2-----------|------------2-----|
---------------------|-------2-------------|---------2--------|
--1------------------|--0--0---------------|--0---------------|


  TP                   TP       TP          TP       TP        
  E  E  E  E  E  E     E  E  E  E  E  E     E  E  E  E  E  E   
--0-----------------|--1--------8--------|--7--------0--------|
-----------1--------|-----------6--------|--------0--0--------|
--------2-----2-----|--------2-----5-----|-----0--------0-----|
-----2-----------2--|-----3-----------7--|-----------------2--|
--0-----------------|--------------------|--------------------|
--------------------|--1-----------------|--3-----------------|


                       TP       TP          TP       TP        
  E  E  E  E  E  E     E  E  E  E  E  E     E  E  E  E  E  E   
--L-----------------|--5-----------------|--6--------5--------|
--------------------|-----------2--------|--------------------|
-----------1--------|--------2-----------|--------0--0--------|
--------2-----2-----|-----2-----2--------|-----2--------2-----|
-----2-----------2--|--4-----------4-----|--4--------------4--|
--4-----------------|-----------------0--|--------------------|


  TP          TP TP    TP                    TP                   
  E  E  E  E  E  E     E  E  E  E  E  E      E  E   E   E  E  E   
--3-----------1--0--|--1-----------------|--13-------------------|
-----------3-----3--|--------3--2--1--0--|-----------------------|
--------2-----2-----|-----2--------------|-----------------------|
-----0--------------|--0-----------------|------0----------0-----|
--0-----------------|--------------------|---------11--11--------|
--------------------|--------------------|---7----------------7--|


  TP         TP            TP       TP          TP          TP     
  E   E  E   E   E  E      E  E  E  E  E  E     E  E  E  E  E  E   
--0---------12---------|--10--------8--------|--5-----------7-----|
-----------------------|------------5--------|--------5-----5-----|
-----------------------|---------5-----5-----|-----5-----5-----5--|
---------9---9---------|------7-----------7--|--------------------|
-----11---------11-----|---0-----------------|--------------------|
--0-----------------0--|---------------------|--3-----------------|


  TP         TP  TP                                       
                           |---7---| 7 7                  
  E   E  E   E.  E.     E  S S S S S S S Q.     E.   E.   
--8----------8---0---|--------------------------7--------|
------------10-------|-----------7-----7-L----------10---|
---------9-------9---|--8------8-----8-------------------|
-----10--------------|-------7-----7---------------------|
---------------------|-----9-----------------------------|
--0------------------|--7--------------------------------|


  E  S S S S S S S S E     H.              E  E  E  E  S S S S  
--5---------------------|--4------------|--0--1--8-------------|
-----------0------------|--0------------|-----1--8---------5-6-|
---------2---2----------|---------------|----------------5-----|
-------2-------2--------|---------------|--2-----------7-------|
-----2-----------2-0----|---------------|----------------------|
--0------------------0--|--0------------|--L--------L----------|


  S S S S S S S S S S S S    E.  S S S S S S E  T T    S S S  S E  S S S S S S  
--5-----------7-----5-----|--5---------3------------|--0-----------1-----0-----|
----4---4-------4-----4---|----------0-L------------|-----------2--L-2-----2---|
------4---4-------4-L---4-|--------4-----4----------|------0h-3--------0-L---0-|
--4---------4-4-----------|------5---------5-2--1-0-|----2---------------------|
--------------------------|-------------------------|--4-----------------------|
--------------------------|--0----------------------|--------------------------|


  S S S S  E   S  S  S  S  E      S S S S S S S S S  S S S  
--0---1---10------------------|---L-----4-----7-----12-----|
------3-------10--------------|---------3-------9------9---|
----2---2--------10-----------|-------2---2-------9--L---9-|
--0-----------------12--------|-----3-------3--------------|
-----------------------12-----|---2------------------------|
----------10--------------10--|---------------0------------|


   S S S S S S S  S S  S S  S    E  S S S S  S  S  S  S  E   
--10-----------8--------------|-------------10--------------|
---------9------------10------|--7-------------------13-----|
-------9---9--------9----9----|---------4---------11-11--L--|
-----9-------9---10--------10-|-------4---4----10-----------|
------------------------------|-----6-----------------------|
---0-----------0--------------|--4----------10--------------|


  S  S S  S S  S S S S S S S    E  S S S S E  E  E   
--8--------------7-----------|-------------------7--|
---------10--------0-------0-|--3------3------6--6--|
-------9----9--------8---8---|-------4---4-6--6-----|
----10--------10-------------|-----3-------6--------|
-----------------6-----6-----|--4-------------------|
--0--------------------------|----------------------|


                                    |-----5-----|   
   E  S S S  S S  S S S S S    Q    E  E  E  E  E   
---------------7------------|--4----0--2--4--5--7--|
--10--------10---10---------|--5----0--0--0--0--0--|
----------7---------7-------|--4-------------------|
--------9-------------9-----|----------------------|
------8-----------------8---|----------------------|
---7----------------------7-|--0-------------------|


   E.   E   T  T  T S.  E  E     E.  E.  E  E  E      E.  E.  E  E  E   
---8----------------8---L--8--|--5----------7--8--|--10----------------|
--10---10--------10----12-----|----------5-----5--|-------9---3--1--3--|
--10---10-----10--------------|------5------------|-------9------------|
-------10--10-----------------|------7------------|-------9---L--------|
---8--------------------------|--8----------------|--------------------|
------------------------------|-------------------|---0----------------|


                        ^                                                
  E  E  E  E.  E.       Q.       E.    S.  S.     E.    E.    E.    E.   
-------------------|--<>5------<>5---<>3-<>1-|--<>1---<>0---<>0---------|
--0-----0----------|----6--------------------|--------------------<>3---|
-----------2---1---|----7--------------------|----1---------------------|
-----4-------------|----9--------------------|--------------------------|
-------------------|-------------------------|--------------------------|
--0----------------|-------------------------|--------------------------|


                                                   ^                   
    E.  E.  Q.          Q.       E    E    E       H          E    E   
--<>0--------------|---------------------<>0--|--<>0-------------<>0--|
----0--------------|--<>1------<>1--<>3-------|----1--------<>3-------|
----5--------------|----0---------------------|----2------------------|
--------7---6------|--------------------------|----3------------------|
-------------------|--------------------------|-----------------------|
-------------------|--------------------------|-----------------------|


                                                 |--3--|              
    E.    E.    Q.          Q.       Q.          E  E  E  E  E.  E.   
-----------------------|--------------------|--<>0-------------------|
--<>3---<>1---<>0------|--<>1------<>3------|------------------------|
----------------1------|----2--------4------|----------2-------------|
----2------------------|--------------------|-------2-----6--5---2---|
-----------------------|--------------------|----4-------------------|
-----------------------|--------------------|------------------------|


                                                      |--3--|   
  E  E  E  E.  S. S.    E.  E.  E.  E.     E.  E.  E  E  E  E   
--5--------5---------|--1---0---0-------|--0-------------------|
--------6--6---8--6--|--0-----------3---|--0-------------------|
-----7---------------|------------------|------2---------------|
--0------------------|--3---------------|----------2-----------|
---------------------|------------------|-------------3--0-----|
---------------------|------------------|-------------------4--|


  E.  E.  E.  E.     E  E  E  E  E  E     E.  E.  Q.        Q.     E  E  E   
--------------0---|--0--------0-----0--|--3--------------|--5------0--5--0--|
--1---1---3-------|--------1--L--3-----|--3---1---0------|--3---------------|
--0---0---4-------|-----2--------------|-----------------|------------------|
------------------|--3-----------------|--2--------------|--0---------------|
------------------|--------------------|-----------------|------------------|
--3---------------|--------------------|-----------------|------------------|


  E.  E.  Q.         E.   S. S. E   E   E     E.  E.  E  S S E   
-----------------|---8----------8-------8--|--5-------5--7---8--|
--3-------0------|--10------10-10--12--10--|----------5---------|
--4---5----------|--------9--9------9------|------5---5----5----|
----------0------|-------10----------------|--7---7--------7----|
--2--------------|-------------------------|--------------------|
-----------------|---8---------------------|--------------------|


   S  S S S S  S  S  S S S S  S     S  S S S  S S  S  S  S  S  S  S  
--10-------------10-------------|--12-------------12-12-12-12-12-12-|
-----12-------12----12-------12-|-----12-----12---------------------|
--------9---9----------9---9----|--------9------9--9--9--9--9--9--9-|
----------9--------------9------|----------9------------------------|
--------------------------------|-----------------------------------|
---0--------------0------0------|---0------0-------0----------------|


  E  E.  T T E  E.  S    E  E.  T T E  Q       E  E.  T T Q.      
--0-------------------|--1----------8-------|--7----------0------|
-------------1--1-----|-----------6-6--6----|--5--5-------5------|
-----------2----2-----|---------5------5----|--4--4-----4--------|
---------2------------|---------------------|-----6---6----------|
--0--0----------------|--0--0---------------|--------------------|
--0--0--------------0-|--0--0---------------|--0--0--------------|


          ^                                                  
  E  Q    Q.        E  E.  T T Q.        E  E.  T T E  Q     
--L--------------|--5-----------------|--6----------5-------|
--5--5----5------|-------------2------|-----------2-L--2----|
--4--4----4------|-----------2-L------|---------2------2----|
--6--6----6------|---------2----------|---------------------|
-----------------|--0--0--------------|--4--4---------------|
--0-------0------|--3--3--------------|--0--0---------------|


                                       NH                             
  E  E.  T T E  E  S S    E  E.  T T   Q.         E   E.  T T Q.      
--3-------------3--1-0-|--1------------5------|--13-----------5------|
-------------3---------|--3--------6----------|---0---0-----3-L------|
-----------2----2------|---------7---<>7------|-----------4----------|
--0--0---0-------------|--0--0----------------|----------------------|
-----------------------|----------------------|--11--11--------------|
-----------------------|----------------------|----------------------|


  E.   E.   E.  E.      Q.      Q    S S    Q.      E.   E.   
--7---13---12---7---|--10-------8--------|----------8---10---|
--0---------0-------|--10------10--------|---------10--------|
------13------------|-----------9----2-1-|--0----------------|
--6-------------6---|--------------------|--0----------------|
--------------------|---0----------------|-------------------|
--------------------|--------------------|--3----------------|


   Q    S  T T  E   E   E      Q.      Q.        E.  E.  E.  E.   
--12-----------------------|------------------|--5---------------|
--10-----------10----------|----------12------|--0-------0-------|
-------------9--L----------|-----------9------|------2---2---2---|
----------10-------12--11--|--10--------------|------2-------2---|
---9-----------------------|---8--------------|------------------|
---------------------------|------------------|--0---------------|


  E.  E.  E.  E.  Q.     S S S    S S S S S S S S S S S S  
--------------0---5------------|--------------------------|
----------0-------5------------|--------------------------|
--1---1------------------------|--------------------------|
--2---2---2---2----------------|--------------2---------0-|
-------------------------0-0-0-|--0-0-0---3-2---0-0-3-2---|
--4---4---4---4----------------|--------3-----------------|


  S S S S S S S S S S S S    S S S S S S S S S S S S  
--------------------------|--------------------------|
--------------------------|----------1-3-------------|
----------------------2-0-|------0-2-----------------|
--2-----------2-3-2-0-----|--2-2---------2-2-3-2-0---|
--0-0-0---3-2-------------|--0-----0-----0-------0-3-|
--------3-----------------|------------------0-------|


  S S S S S S S S S S S S    S S S  S S  S S S S S S S  
--------------0-1-0---5-4-|-----------8-10-0-0-1-0-----|
----------1-3-------3-----|------8-10--------------3-1-|
------0-2-----------------|--9-9-----------------------|
--2-2---------------------|----------------------------|
--0-----0-----0-------0---|--0------0------0-------0---|
------------------0-------|--------------------0-------|


  S S S  S S  S  S  S  S  S E     S S S S  E    E    E    E   
-----------8-10-12-13-10-12-9--|--------5--L------------<>5--|
------8-10---------------------|------6------------<>6-------|
--9-9--------------------------|----7---------<>7------------|
-----------------------0-------|--0--------------------------|
--0------0---------------------|-----------------------------|
-----------------0----------9--|-----------------------------|


                                                    |--3--|                    
  Q.     E.  S. S.    Q    E  S S Q       Q    Q    E  E  E     H        Q     
--L------5---3--1--|--1----0------0----|-------0-------------|----------------|
-------------------|--1----------------|--3---------------0--|--L-------------|
-------------------|--0---------2-L----|------------0--2-----|-----------3----|
-------------------|-------------------|------------2--------|--L--------5----|
-------------------|-------------------|-------3-------------|-----------4----|
-------------------|-------------------|---------------------|----------------|


  Q.     E.  E.     H        E  E     E.  E.  Q.        Q    S E  S S S S S  
-------------0---|--0-----------0--|-----------------|-------0-8--7-5-4-5-7-|
---------3-------|--1--------3-----|--3---1---0------|--1-------------0-----|
--L--------------|--2--------------|--0--------------|--2-------------------|
--L--------------|--3--------------|--2--------------|----------------------|
--L--------------|-----------------|-----------------|--0-------------------|
-----------------|-----------------|-----------------|----------------------|


                     |-3-|                         
  S E  S T T S E  E  S S S      S   E.  Q    Q     
--0------------------0-3-5-|------<>0---5----3----|
----3--1-3-1-0-1--2--------|--<>2-----------------|
-------2-----0-------------|----------------------|
---------------------------|----2-----------------|
-------3----------4--------|----------------------|
---------------------------|----------------------|


  E  T T T T T T T T S E  E.     Q    Q    Q       E.  E.  E.  E  S  
--5----------------5-L-8--8---|--7----5----0----|------0---1---3----|
-----------6-----6---L--------|--8----6----1----|--3---1------------|
---------7-----7--------------|------------0----|-----------------0-|
-------7-----7----------------|-----------------|------3------------|
--5--5------------------------|-----------------|--------------3----|
------------------------------|-----------------|-------------------|


  S S E  Q.     S S    E  S S S S E  E  E     Q    T T S E  E  E   
----0-3--7------6-5-|--3-------------------|--0----------0-----0--|
--3-----------------|----------------1--3--|-----------1-L--3-----|
--------------------|-----------3-2--------|---------2------------|
--------------------|---------5------------|-------3-----------L--|
--------------------|-------4--------------|----------------------|
--------------------|-----3----------------|--1-------------------|


                     ^                                   
  E.  E.  E.  E.     Q.     E  E  E     E.  E.  E.  E.   
------------------|--5------0--5--0--|------------------|
--3---1---0-------|--5---------------|--3---1---0-------|
--0-----------0---|--5---------------|--2-------1-------|
----------0-------|--3---------------|------------------|
------------------|------------------|--2---------------|
--0---------------|------------------|----------0---0---|


  T T T T S S S S S S S S S S    S S S S S S S S S S S S  
------------------------------|--------------------------|
------------------------------|--------------------------|
------------------------------|----------------------2-0-|
------2-----------2---------0-|--------------2-3-2-0-----|
----0---0-0---3-2---0-0-3-2---|--0-0-0---3-2-------------|
--0---------3-----------------|--------3-----------------|


  S S S S S S S S S S S S    S S S S S S S S S S S S  
--------------------------|--------------0-1-0---5-4-|
----------1-3-------------|----------1-3-------3-----|
------0-2-----------------|------0-2-----------------|
--2-2---------2-2-3-2-0---|--2-2---------------------|
--0-----0---------0---0-3-|--0-----0---------0---0---|
--------------0-----------|--------------0-----------|


  S S S  S S  S S S S S S S    S S S  S S  S  S  S  S  S  S  S   
-----------8-10-0-0-1-0-----|-----------8-10-12-13-10-12----17-||
------8-10--------------3-1-|------8-10------------------13-17-||
--9-9-----------------------|--9-9-----------------------------||
----------------------------|----------------------------------||
--0------0----------0---0---|--0------0-------------0--------0-||
----------------0-----------|-----------------0----------------||




Duration Legend
---------------
W - whole
H - half
Q - quarter
E - 8th
S - 16th
T - 32nd
X - 64th
. - note dotted
|-n-|  - n-tuplets


Tablature Legend
----------------
L - tied note
x - dead note
g - grace note
(n) - ghost note
> - accentuded note
NH - natural harmonic
AH - artificial harmonic
TH - tapped harmonic
SH - semi harmonic
PH - pitch harmonic
h - hammer on
p - pull off
b - bend
br - bendRelease
pb - preBend
pbr - preBendRelease
brb - bendReleaseBend
\n/ - tremolo bar dip
\n - tremolo bar dive
-/n - tremolo bar Release up
/n\ - tremolo bar inverted dip
/n - tremolo bar return
-\n - tremolo bar Release down
S - shift slide
s - legato slide
/ -  slide into from below or out of upwards
\ -  slide into from above or out of downwards
~ - vibrato
W - wide vibrato
tr - trill
TP - tremolo picking
T - tapping
S - slap
P - pop
< - fade in
^ - brush up
v - brush down
Login or Register to remove this ad.

1 comment on Dependent Weaking

Holy jaybus. This one is

5

Holy jaybus. This one is monstrous, in the best way. Amazing work!