Ads

City Ruins (NieR: Automata) Guitar Tab

Submitted: Feb 09, 2019 by guitarsvd (Last updated: Feb 11, 2019)

5
Average: 5 (1 vote)
Download | No audio :(
Game: NieR: Automata
Composer(s): Keiichi Okabe, Keigo Hoashi, Kuniyuki Takahashi
Style: Arrangement, Artificial harmonics, Fingerstyle, Natural harmonics
Series: NieR

Click here for a video example.

AutoScroll: Slow | Medium | Fast
City Ruins                                    


                                                                       GuitarSVD
Track 1



     ^                                                                     
     H.                H.               Q     Q     Q        H.            
E||--5------------|-----------------|--12----10----12----|----------------|
B||--5------------|--<>5------------|--10----------------|--10------------|
G||--5------------|----L------------|--10----------------|--10------------|
D||--7------------|----L------------|--------------------|----------------|
A||---------------|-----------------|--------------------|----------------|
D||---------------|-----------------|--------------------|----------------|


   ^                  NH                                                    
   H.                 H         Q        Q     Q     Q        H.            
----------------|--<>12--------15----|--14----12----14----|--10------------|
--10------------|--------------------|--10----------------|--10------------|
---9------------|-----L--------------|--11----------------|----------------|
--10------------|-----L--------------|--------------------|----------------|
----------------|--------------------|--------------------|----------------|
----------------|--------------------|--------------------|----------------|


   ^                                                                       
   H.               Q     Q     Q        H.               Q    Q     Q     
--12------------|--------------------|--10------------|--10----8----------|
--10------------|--10----12----13----|---8------------|---L---------12----|
--10------------|--10----------------|---9------------|---L---------------|
----------------|--------------------|----------------|-------------------|
----------------|--------------------|----------------|-------------------|
----------------|--------------------|----------------|-------------------|


  H         Q        Q    Q    Q       Q    Q    Q       H.            
--8--------12----|--10----8----7----|--8--------------|--7------------|
--6--------------|---8--------------|------------5----|---------------|
--7--------------|---9--------------|-------5---------|--7------------|
-----------------|------------------|--7--------------|---------------|
-----------------|------------------|-----------------|---------------|
-----------------|------------------|-----------------|---------------|


  H.              H.              Q    Q    Q       H.            
---------------|--0------------|--0---------0----|---------------|
---------------|--1------------|-------3----1----|---------------|
--2------------|---------------|-------2---------|--2------------|
--2------------|--L------------|--3--------------|--3------------|
---------------|---------------|-----------------|---------------|
---------------|---------------|-----------------|---------------|


  H.              H        Q       Q    Q    Q       H.            
---------------|--0--------3----|--2----0----2----|---------------|
---------------|--1-------------|--3----3---------|--3------------|
--2------------|----------------|--2---------2----|---------------|
--2------------|--L-------------|-----------------|--0------------|
---------------|----------------|-----------------|---------------|
---------------|----------------|-----------------|---------------|


  ^                                 ^                               
  H.              Q    Q    Q       H.              Q    Q    Q     
--0------------|-----------------|---------------|-----------------|
--1------------|-------0----1----|--3------------|--3----1----0----|
--2------------|--2----2---------|--0------------|-------0---------|
--3------------|--3--------------|--2------------|--2--------------|
---------------|-----------------|---------------|-----------------|
---------------|-----------------|---------------|-----------------|


  Q    Q    Q       Q    Q    Q       Q    Q    Q       H.            
------------0----|-----------------|-----------------|---------------|
--1--------------|--3----1----0----|--1--------------|--0------------|
-------2---------|-------0---------|--0---------0----|---------------|
--3--------------|--2--------------|-------2---------|---------------|
-----------------|-----------------|--0--------------|---------------|
-----------------|-----------------|-----------------|---------------|


  Q    Q    Q       Q    Q    Q       Q    Q    Q       Q    Q    Q     
--7--------------|--5--------------|--3--------------|--L---------0----|
--6---------6----|--6--------------|-----------------|-------0---------|
--5----5---------|--5----5---------|-----------------|--0--------------|
--3--------------|--3---------3----|------------4----|-----------------|
-----------------|-----------------|-------2---------|-----------------|
-----------------|-----------------|--2--------------|-----------------|


  Q    Q    Q       Q    Q    Q       Q    Q    Q       Q    Q    Q     
--7--------------|--8--------------|--3--------------|--3----1----0----|
--6---------6----|--6--------------|------------1----|-------1---------|
--5----5---------|--5----5---------|-------0---------|------------0----|
--3--------------|------------3----|-----------------|-----------------|
-----------------|-----------------|--3--------------|--3--------------|
-----------------|-----------------|-----------------|-----------------|


  Q    Q    Q       Q    Q    Q       Q    Q    Q       Q    Q    Q     
--1--------------|--1----0---------|--0--------------|--0--------------|
------------3----|------------3----|------------1----|--1----3----1----|
-------3---------|--3--------------|-------2---------|-------2---------|
-----------------|-------3---------|-------2---------|------------2----|
--1--------------|------------1----|--0--------------|-----------------|
-----------------|-----------------|-----------------|-----------------|


  Q    E  E  Q       Q    E  E  Q       Q    Q    Q       H.            
------------------|----------2-------|--5--------------|--4------------|
------------------|--4---------------|------------3----|--3------------|
--2-------5-------|-------------2----|-------4---------|---------------|
-------------2----|-------4----------|-----------------|---------------|
-------3----------|--2---------------|-----------------|---------------|
--4---------------|------------------|--2--------------|--L------------|


     ^                                                NH         
     Q     Q    Q        Q     Q     Q        Q       Q    Q     
-----8----------8----|--------10-----8----|---8------------8----|
----10----12---------|--------------10----|--------<>12---------|
-----9---------------|---9----------------|---9-----------------|
---------------------|--------------------|---------------------|
--<>12---------------|---L----------------|--10-----------------|
---------------------|--------------------|---------------------|


                         ^                                     
   Q     Q    Q          Q     Q    Q        Q     Q     Q     
--------10----8----|-----8----------8----|--------10-----8----|
-------------------|----10----12---------|--------------10----|
---L---------------|-----9---------------|---9----------------|
-------------------|---------------------|--------------------|
-------------------|--<>12---------------|---L----------------|
-------------------|---------------------|--------------------|


     NH                                                        
     Q     Q     Q        Q     Q     Q       Q     Q    Q     
----10----------10----|--------12----10----|--8----------8----|
----------13----------|--------------------|-------12---------|
----11----------------|--11----------------|--9---------------|
--<>12----------------|---L----------------|------------------|
----------------------|--------------------|--8---------------|
----------------------|--------------------|------------------|


  Q     Q    Q       Q     Q    Q       Q    Q    Q       Q     Q    Q     
-------10----8----|--7----------7----|-------7---------|--8----------8----|
------------------|-------10---------|------------8----|-------12---------|
--9----------9----|--7---------------|--7--------------|--9---------------|
------------------|------------------|-----------------|------------------|
--L---------------|--7---------------|--L--------------|--8---------------|
------------------|------------------|-----------------|------------------|


                        NH                                                      
  Q     Q    Q          Q     Q    Q         H.              E  E  E  E  E  E   
-------10----7----|-----8----------8----|-----------------|--------------------|
------------------|----10----12---------|--<>8------------|--------------1--0--|
--9---------------|-----9---------------|-----------------|--2-----0--2--------|
------------------|---------------------|-----------------|-----2--------------|
--7---------------|--<>12---------------|----L------------|--0-----------------|
------------------|---------------------|-----------------|--------------------|


  E  E  E  E  E  E     E  E  E  E  E  E     E  E  E  E  E  E   
--0-----------------|--0-----------0-----|--------------------|
--------------1--0--|--------3-----0--1--|--------------1--0--|
--------0--2--------|-----------2--------|--2--------2--------|
-----2--------------|--------3-----------|--------3-----------|
--0-----------------|-----3--------------|-----3--------------|
--------------------|--3-----------------|--3-----------------|


  E  E  E  E  E  E     E  E  E  E  E  E     E  E  E  E  E  E   
--------------------|--0-----------3-----|--2-----0-----2-----|
--------------1--0--|--------------1--0--|--------3-----3-----|
--2-----0--2--------|--------0--2--------|-----2-----------2--|
-----2--------------|-----2--------------|--0--------0--------|
--0-----------------|--0-----------------|--------------------|
--------------------|--------------------|--------------------|


  E  E  E  E  Q       E  E  E  E  E  E     E  E  E  E  E  E   
-------------------|--0-----------------|--------------------|
--3----------------|--------------0--1--|--------0-----1-----|
-----------2-------|-----------2--------|--2--------2--------|
--0--2--4-----2----|--3-----3-----------|--------3-----3-----|
-------------------|-----3--------------|-----3-----------3--|
--------------2----|--3-----------------|--3-----------------|


  E  E  E  E  E  E     E  E  E  E  E  E     E  E  E  E  E  E   
--------------------|--------------------|--------------0-----|
--3--------------0--|--3-----------0-----|--1-----------1-----|
--------------0-----|--------5-----0-----|--------0--2-----2--|
--------2--4--------|--------2--4-----0--|--------------------|
-----2--------------|-----2--------------|-----3--------------|
--2-----------------|--2-----------------|--3-----------------|


  E  E  E  E  E  E     E  E  E  E  E  E     E  E  E  E  Q     
--------------------|--------------------|-------------------|
--3-----------0-----|--1-----------1--0--|--1----------------|
--------5-----0-----|--------0--2--------|-----2-------------|
--------2--4-----4--|-----2--------------|--------2----------|
-----2--------------|--0-----------------|-----------0-------|
--2-----------------|--------------------|--------------5----|


    E  E  E  E  E  E     E  E  E  E  E  E     E  E  E  E  E  E   
|---7-----------------|--5-----------------|--3-----------------|
|---6-----------6-----|-----6--------------|-----------------0--|
|*--5--------5-----5--|--------5-----------|--------------0-----|
|*--------3-----------|-----------3--------|--------2--4--------|
|------3--------------|--------------3-----|-----2--------------|
|---3-----------------|--3--------------3--|--2-----------------|


  E  E  E  E  E  E     E  E  E  E  E  E     E  E  E  E  E  E   
--0-----------------|--7-----------------|--8-----------------|
-----0--------------|--------------6-----|-----6--------------|
--------0-----------|-----------5-----5--|--------5-----------|
-----------4--------|--------3-----------|-----------3--------|
--------------2-----|-----3--------------|--------------3-----|
-----------------2--|--3-----------------|--3--------------3--|


  E  E  E  E  E  E     E  E  E  E  E  E     E  E  E  E  E  E   
--3-----------------|--3-----1-----0-----|--1-----------------|
-----------0--------|-----------0--------|-----------3--------|
--------0-----0-----|--------0-----0-----|--------3-----3-----|
-----2-----------2--|-----2-----------2--|-----3-----------3--|
--3-----------------|--3-----------------|--1-----------------|
--------------------|--------------------|--------------------|


  E  E  E  E  E  E     E  E  E  E  E  E     E  E  Q    Q     
--1-----0-----------|--0-----------------|--0---------------|
--------------3-----|--------------1-----|--------3----1----|
--------3-----3-----|--------2--4-----2--|--------2---------|
-----3-----3-----3--|-----2--------------|-----2-------2----|
--1-----------------|--0-----------------|--0---------------|
--------------------|--------------------|------------------|


  E  E  E  E  E  E     E  E  E  E  E  E     E  E  E  E  E  E   
--------------------|-----------2--------|--5-----------------|
--------------------|--4--------4--------|--------------5-----|
--2--------5--------|--------2-----2-----|-----------2-----2--|
--------2-----4-----|-----4-----------4--|--------2-----------|
-----3-----------3--|--2-----------------|-----2--------------|
--4-----------------|--------------------|--2-----------------|


  Q    Q    Q         Q    Q    Q       H.            
--4----5----7-----||--4--------------|--L------------|
------------------||-----------------|---------------|
-----------------*||-----------------|--1------------|
-----------------*||------------0----|---------------|
------------------||-------2---------|---------------|
--2----4----6-----||--2--------------|--L------------|


     NH                                                                        
     E   E   E   E  E   E      E   E   E   E  E   E      E   E  E   E  E   E   
-----8--------------8------|----------10------8------|---8------7------8------|
------------12-------------|-------------------------|------------------------|
---------------------------|---9---------------------|---9--------------------|
--------10------10-----10--|------10------10-----10--|------10-----10-----10--|
--<>12---------------------|---L---------------------|--10--------------------|
---------------------------|-------------------------|------------------------|


                               NH                                          
   E   E   E   E  E   E        E   E   E   E  E   E     E  E  E  E  E  E   
----------10------8------|-----8--------------8------|--5-----0-----------|
-------------------------|------------12-------------|-----------3-----3--|
---L---------------------|---------------------------|-----5--------5-----|
------10------10-----10--|--------10------10-----10--|--------------------|
-------------------------|--<>12---------------------|--------------------|
-------------------------|---------------------------|--------------------|


  E  E  E  E  E  E     E  E  E  E  E  E     E  E  E  E  E  E   
--5-----0-----3-----|--5-----8--7--5-----|--5-----0-----3-----|
-----3-----3-----3--|-----3-----------8--|-----3-----3-----3--|
--------------------|--------------------|--------------------|
--------------------|--------------------|--------------------|
--0-----------------|--L-----------------|--3-----------------|
--------------------|--------------------|--------------------|


  E  E  E  E  E  E     E  E  E  E  E  E     E  E  E  E  E  E   
--5-----0-----------|--5-----0-----3-----|--5-----8--7--5-----|
-----3-----3-----3--|-----3-----3-----3--|-----3-----------8--|
--------------5-----|--------------------|--------------------|
--------------------|--------------------|--------------------|
--L-----------------|--0-----------------|--L-----------------|
--------------------|--------------------|--------------------|


  E  E  E  E  E  E     E  E  E  E  E  E     E  E  E  E  E  E   
--5-----0-----3-----|--5-----0-----------|--5-----0-----3-----|
-----3-----3-----3--|-----3-----3-----3--|-----3-----3-----3--|
--------------------|--------------5-----|--------------------|
--------------------|--------------------|--------------------|
--3-----------------|--L-----------------|--0-----------------|
--------------------|--------------------|--------------------|


  E  E  E  E  E  E       H.                H.            
--5-----8--7--5-----|-----------------|--<>0------------|
-----3-----------8--|-----------------|-----------------|
--------------------|--<>2------------|-----------------|
--------------------|-----------------|-----------------|
--L-----------------|----0------------|----L------------|
--------------------|-----------------|-----------------|


    Q      Q      Q         H.             
--<>0-----------<>0----|-----------------||
---------<>3-----------|-----------------||
-----------------------|--<>2------------||
-----------------------|-----------------||
----L------------------|----L------------||
-----------------------|-----------------||




Duration Legend
---------------
W - whole
H - half
Q - quarter
E - 8th
S - 16th
T - 32nd
X - 64th
. - note dotted
|-n-|  - n-tuplets


Tablature Legend
----------------
L - tied note
x - dead note
g - grace note
(n) - ghost note
> - accentuded note
NH - natural harmonic
AH - artificial harmonic
TH - tapped harmonic
SH - semi harmonic
PH - pitch harmonic
h - hammer on
p - pull off
b - bend
br - bendRelease
pb - preBend
pbr - preBendRelease
brb - bendReleaseBend
\n/ - tremolo bar dip
\n - tremolo bar dive
-/n - tremolo bar Release up
/n\ - tremolo bar inverted dip
/n - tremolo bar return
-\n - tremolo bar Release down
S - shift slide
s - legato slide
/ -  slide into from below or out of upwards
\ -  slide into from above or out of downwards
~ - vibrato
W - wide vibrato
tr - trill
TP - tremolo picking
T - tapping
S - slap
P - pop
< - fade in
^ - brush up
v - brush down
Login or Register to remove this ad.