Ads

Grass Land (New Super Mario Bros. Wii) Guitar Tab

Submitted: Jun 26, 2022 by jked (Last updated: Jun 27, 2022)

0
Download | Listen
Game: New Super Mario Bros. Wii
Composer(s): Kenta Nagata, Shiho Fujii, Ryo Nagamatsu
Style: Arrangement, Fingerstyle
Series: Mario

This song is also called World 1

AutoScroll: Slow | Medium | Fast

Grass Land / World 1
New Super Mario Bros. Wii

Composed by Shiho Fujii, Ryo Nagamatsu, Kenta Nagata
Arranged by toby

6/26/2022

75 beats per minute, swing feel

|----------------------------|----------------------------|
|--0-----0-----1-----1-------|--2--2-----3----------------|
|--0-----0--0--2-----2--2----|--3--3-----4-----------0----|
|----------------------------|-----------------0----------|
|----------------------------|----------------------------|
|--3-----3-----3-----3-------|--3--3-----3--------3-------|

|--------0-----------0-------|-----0-----0--------0-------|
|-----0-----1----------------|--------4-------------------|
|--------0-----0-----0--0----|--------0-----------0-------|
|----------------------------|----------------------------|
|--3-------------------------|--3--------3----------------|
|--------------3-------------|--------------3--------3----|

|----------------------------|--------------------1-------|
|-----1--------1-----4-------|-----4--3--4-----------1----|
|--------2-----2-----2-------|----------------------------|
|--3--------3----------------|--3-------------------------|
|--------------0--------3----|--------0-----3-------------|
|----------------------------|----------------------------|

|--------0-------------------|--------3-----0-------------|
|-----0--0-----------0-------|----------------------------|
|--------0-----0-----0-------|--3-----2--0--------0-------|
|--2--------2----------------|-----------------2----------|
|--------------2--------2----|--0--------0--------0-------|
|----------------------------|--------------0--------0----|

|--1-----1-----------1-------|--------1-----------1-------|
|-----------3--------1-------|--0-----0-----3-----0-------|
|--------0-----2-----2--2----|-----2-----0----------------|
|--0-------------------------|-----------------3-----0----|
|--------0-----0--------0----|----------------------------|
|----------------------------|--3--------3----------------|

|--------0-----------0-------|-----0-----0--------0-------|
|-----0-----1----------------|--------4-------------------|
|--------0-----0-----0--0----|--------0-----------0-------|
|----------------------------|----------------------------|
|--3-------------------------|--3--------3----------------|
|--------------3-------------|--------------3--------3----|

|----------------------------|----------------------------|
|-----1--------1-----4-------|-----4--3--4--1-----4--1----|
|--------2-----2-----2-------|--------------------2-------|
|--3--------3--------1-------|--3-------------------------|
|--------------0--------3----|--------0-----3-------------|
|----------------------------|----------------------------|

|-----0--------------1-------|----------------------------|--------3--3----|
|--3--------3--1-------------|--4-----3-----1-----1-------|--0--0--1--1----|
|--------2-----------2-------|-----------0--------2-------|--0--0----------|
|--------3-------------------|--------------0--------0----|----------------|
|--------------0--------0----|--------3-------------------|--------0--0----|
|----------------------------|--3-------------------------|--3--3----------|


|----------------------------|
|--2--2-----3----------------|
|--0--0-----0----------------|
|----------------------------|
|--1--1-----2----------------|
|----------------------------|
Login or Register to remove this ad.