Ads

Shrine (Neutopia) Guitar Tab

Submitted: Jan 23, 2011 by auriplane

5
Average: 5 (1 vote)
Download | Listen
Game: Neutopia
Composer(s): Tomotsune Maeno
Style: 2 or more instruments, Alternate picking, Arrangement

AutoScroll: Slow | Medium | Fast
                        Neutopia - Shrine GUITAR TAB
                        Composed by  Tomotsune Maeno
   
                   Tabbed by Auriplane ([email protected])


This is a tab for a guitar and bass arrangement.  The bass is the same as
another tab I've already put on the site, so I'm not going to post that here,
but it's in the GP5 file in the download link, along with sheet music.
                                              
Both guitars have a capo on 3.  The first guitar plays the melody, which is
easy, and the second guitar plays the chords, which are a little harder.



                         FIRST GUITAR - MELODY
               (Rest for two measures at the beginning.)

   Q   Q   E Q   E  E Q.    E Q   E  Q   Q   E. E. SS H.          Q    
e |----------------|----------------|----5---4--2----|----------------|
B |2---2---3-2---0-|L-5~----L-0-----|--------------53|5-----------2---|
G |----------------|--------------1-|2---------------|----------------|
D |----------------|----------------|----------------|----------------|
A |----------------|----------------|----------------|----------------|
E |----------------|----------------|----------------|----------------|

   Q   E E E E E E  Q.    E E E Q    H       E Q   E  Q.    E E E E E  
e |2-------------2-|0---------------|----------------|----------------|
B |----3-0-L---0---|----------0-2---|3-------L-2-----|------------1-3-|
G |----------1-----|------2-L-------|--------------2-|2-----4-L-4-----|
D |----------------|----------------|----------------|----------------|
A |----------------|----------------|----------------|----------------|
E |----------------|----------------|----------------|----------------|

   Q   Q   E Q   E  E Q.    E E E E  Q   Q   E Q   E  H.          Q    
e |----------------|--3-----L-------|----------------|----------------|
B |5---5---6-5---3-|L---------6-5-3-|1---1---3-5---0-|L-----------5---|
G |----------------|----------------|----------------|----------------|
D |----------------|----------------|----------------|----------------|
A |----------------|----------------|----------------|----------------|
E |----------------|----------------|----------------|----------------|

   H.          Q    H       E E E E  H       E Q   E  Q.    E E E E E  
e |----------------|--------------0-|----------------|------5-L-4---4-|
B |----------------|------------1---|3-------L-5---6-|5-----------7---|
G |2-----------4---|0-------L-0-----|----------------|----------------|
D |----------------|----------------|----------------|----------------|
A |----------------|----------------|----------------|----------------|
E |----------------|----------------|----------------|----------------|

   W                                 
e |5---------------|----------------|
B |----------------|----------------|
G |----------------|----------------|
D |----------------|----------------|
A |----------------|----------------|
E |----------------|----------------|

        Now repeat back to the beginning, and play it one more time.





                          SECOND GUITAR - HARMONY




        Intro

   E E E Q   Q   E  E E E Q   Q   E  
e |----------0-----|----------0-----|
B |------0---------|------0---------|
G |2---2-----------|2---2-----------|
D |--2-----------2-|--2-----------2-|
A |----------------|----------------|
E |----------------|----------------|


        Main part

   E E E Q   Q   E  E E E Q   Q   E  E E E Q   Q   E  E E E Q   Q   E  
e |----------0-----|----------0-----|----------2-----|----------0-----|
B |------0---------|------2---------|------2---------|------2---------|
G |2---2-----------|1---1-----------|2---2-----------|1---1-----------|
D |--2-----------2-|--2-----------2-|--4-----------4-|--2-----------2-|
A |----------------|----------------|----------------|----------------|
E |----------------|----------------|----------------|----------------|


   E E E Q   E E E  E E E Q   E Q    E E E Q   Q   E  E E E E E E Q    
e |----2---------5-|4---------------|----------2-----|------0-L-0-----|
B |------3-----5---|--5-------5-----|3-----3---------|----0-------3---|
G |--2-------4-----|----4-6---------|----4---------2-|--2-------------|
D |4---------------|------------4---|--4-------------|2---------------|
A |----------------|----------------|----------------|----------------|
E |----------------|----------------|----------------|----------------|


   E E E Q   E E E  E E E Q   E E E  E E E Q   E E E  E E E Q   E E E  
e |0-----1---0-----|0-----0---------|----------------|----------------|
B |----1-------1---|----0-----0-----|1-----3---1-----|0-----0---------|
G |--0-----------0-|--0---------0---|----2-------2---|----0-----0---0-|
D |----------------|--------------2-|--2-----------2-|--2---------2---|
A |----------------|----------------|----------------|----------------|
E |----------------|----------------|----------------|----------------|


   E E E Q   E E E  E E E Q   E E E  H       E Q   E  Q.    Q.    Q    
e |----------------|------------0-3-|2-------L-4---5-|5-----7---------|
B |--------------0-|1-----1---1-----|----------------|------------0---|
G |2-----2-----2---|----0-----------|----------------|----------------|
D |----3-----3-----|--2-------------|----------------|----------------|
A |--3-------------|----------------|----------------|----------------|
E |----------------|----------------|----------------|----------------|

        First ending

   E E E Q   Q   E  E E E Q   Q   E  
e |----------0-----|----------0-----|
B |------0---------|------0---------|
G |2---2-----------|2---2-----------|
D |--2-----------2-|--2-----------2-|
A |----------------|----------------|
E |----------------|----------------|

        Second ending

   E E E Q   Q   E  E E E Q   Q   E  E E E Q   Q   E  E E E Q   E Q    ^
e |----------0-----|----------0-----|----------0-----|----------0-----|0---|
B |------0---------|------0---------|------0---------|------0---------|0---|
G |2---2-----------|2---2-----------|2---2-----------|2---2-----------|2---|
D |--2-----------2-|--2-----------2-|--2-----------2-|--2---------2---|2---|
A |----------------|----------------|----------------|----------------|0---|
E |----------------|----------------|----------------|----------------|----|


Login or Register to remove this ad.