Ads

Shrine (Neutopia) Bass Tab

Submitted: Jun 02, 2010 by auriplane

0
Download | Listen
Game: Neutopia
Composer(s): Tomotsune Maeno
Style: Transcription

AutoScroll: Slow | Medium | Fast
                          Neutopia - Shrine BASS TAB
                         Composed by  Tomotsune Maeno

                    Tabbed by Auriplane ([email protected])


Four-string bass, standard tuning.  Notes with a "s" over them should be
played short (staccato).  There's also a GP5 and sheet music in the ZIP
file, if you click the download link.


        Intro

   s     s          s     s
G |----------------|----------------|
D |----------------|----------------|
A |3-----3---------|3-----3---------|
E |----------------|--------------3-|


        Part A

   s     s          s     s          s     s          s     s
G |----------------|----------------|----------------|----------------|
D |----------------|----------------|----------------|----------------|
A |3-----3---------|----------------|----------------|7-----7-------7-|
E |----------------|0-----0---------|5-----5---------|----------------|


   s     s          s                s     s          s     s
G |----------------|----------------|----------------|----------------|
D |------5---------|----------------|----------------|----------------|
A |8-----------8---|7---------------|5-----5---------|----------------|
E |----------------|------5---7-8---|----------------|3-----3-----6---|


        Part B

   s     s          s     s          s     s          s     s
G |----------------|----------------|----------------|----------------|
D |----------------|----------------|----------------|----------------|
A |6-----6---------|----------------|3-----3---------|----------------|
E |----------------|3-----3---------|----------------|3-----3---------|


   s     s          s     s          s     s          s     s
G |----------------|----------------|----------------|----------------|
D |----------------|----------------|----------------|----------------|
A |----------------|6-----6---------|5-----5---------|----------------|
E |4-----4---------|----------------|----------------|3-----3-----3---|


   s     s          s     s
G |----------------|----------------|
D |----------------|----------------|
A |3-----3---------|3-----3---------|
E |----------------|------------3---|


        Now repeat back to Part A.


Login or Register to remove this ad.