Town Theme (Legend of Zelda: Adventure of Link) Bass Tab

Submitted: Sep 30, 2007 by Calebelijah (Last updated: Sep 20, 2009)

5
Average: 5 (2 votes)
Download | Listen
Game: Legend of Zelda: Adventure of Link
Composer(s): Akito Nakatsuka
Style: Transcription
Series: Legend of Zelda

Click here for a video example.

AutoScroll: Slow | Medium | Fast
Bass
     S. T S. T S. T S. T S. T S. Q    T    S. T S. T S. T S. E  T S. T S. E  T
G||----------------------7----5---------|------------2----0-------4----7-------|
D||-------------------------------------|--0----3------------------------------|
A||-------5----6----7-------------------|--------------------------------------|
E||--8----------------------------------|--------------------------------------|

    S. E  T S. T S. E  T S. T S. T S. T    S. E  T S. T S. E  T S. T S. T S. T
|-----------0------------5----0---------|----------0------------5----0---------|
|*---------------2-----------------2----|---------------2-----------------2----|
|*--3-----------------------------------|--3-----------------------------------|
|---------------------------------------|--------------------------------------|

  S. E  T S. T S. E  T S. T S. T S. T    S. E  T S. T S. E  T S. T S. T S. T
-----------------------7--------------|-----------------------7--------------|
--0-------7-----------------7---------|--0-------7-----------------7---------|
---------------8-----------------8----|---------------8-----------------8----|
--------------------------------------|--------------------------------------|

  S. E  T  S.T  S.E  T  S.T  S.T  S.T     S.E  T  S.T  S.E  T  S.T  S.T  S.T
-----------------------10-------------|-----------------------12-------------|
----------10----------------10--------|----------12----------------12--------|
--8------------12----------------12---|--10-----------14----------------14---|
--------------------------------------|--------------------------------------|

  S. E  T S. T S. E  T S. T S. T S. T    S. E  T S. T S. E  T S. T S. T S. T
-----------------------6----9---------|---------------0------------7---------|
----------9----7-----------------7----|--0-------7------------9---------9----|
--7-----------------------------------|--------------------------------------|
--------------------------------------|--------------------------------------|

  S. E  T S. T S. E  T S. T S. T S. T    S. E  T S. T S. E  T S. T S. T S. T
----------0------------5----0---------|----------0------------5----0---------|
---------------2-----------------2----|---------------2-----------------2----|
--3-----------------------------------|--3-----------------------------------|
--------------------------------------|--------------------------------------|

  S. E  T S. T S. E  T S. T S. T S. T    S. E  T S. T S. E  T S. T S. T S. T
-----------------------7--------------|-----------------------7--------------|
--0-------7-----------------7---------|--0-------7-----------------7---------|
---------------8-----------------8----|---------------8-----------------8----|
--------------------------------------|--------------------------------------|

  S. E  T  S.T  S.E  T  S.T  S.T  S.T     S.E  T  S.T S. E  T  S.T  S.T  S.T
----------------------------10--------|----------------------------10--------|
----------10-----------10--------10---|----------12---9-------12--------12---|
--8------------11---------------------|--10----------------------------------|
--------------------------------------|--------------------------------------|

  S. E  T S. T S. E  T S. T S. T S. T    S. E  T S. T S. E  T S. T S. T S. T
----------0------------0----5----0----|----------0------------3---------3----|
---------------2----------------------|---------------2------------2---------|
--3-----------------------------------|--3-----------------------------------|
--------------------------------------|--------------------------------------|

  S. H        T S. T S. T S. T    S. H        T S. T S. T S. T
-------------------------------|----------------7----7----7----|
--0-------------7----7----7----|--5----------------------------|
-------------------------------|-------------------------------|
-------------------------------|-------------------------------|

  S. H        T S. T S. T S. T    S. H        T S. T S. T S. T
-------------------------------|----------------9----9----9----|
----------------9----9----9----|--7----------------------------|
--7----------------------------|-------------------------------|
-------------------------------|-------------------------------|

  S. H        T S. T S. T S. T    S. H        T S. T S. T S. T
-------------------------------|----------------7----7----7----|
----------------7----7----7----|--5----------------------------|
--5----------------------------|-------------------------------|
-------------------------------|-------------------------------|

  S. H        T S. T S. T S. T    S. H        T S. T S. T S. T
-------------------------------|----------------9----9----9----|
----------------9----9----9----|--7----------------------------|
--7----------------------------|-------------------------------|
-------------------------------|-------------------------------|

  S. T S. T S. T S. H        T    S. T S. T S. T S. H        T
-------------------------------|-------------------------------|
-------------------------------|-------------------------------|
--5----5----5----5-------------|--7----7----7----7-------------|
-------------------------------|-------------------------------|

  S. T S. T S. T S. H        T    S. T S. T S. T S. H        T
-------------------------------|-------------------------------|
-------------------------------|-------------------------------|
--5----5----5----5-------------|--8----8----8----8-------------|
-------------------------------|-------------------------------|

  S. Q    T S. Q    T  S.E  T    S. Q    T S. Q    T S. E  T
------------7---------10------|------------5---------7-------|
--8---------------------------|--6---------------------------|
------------------------------|------------------------------|
------------------------------|------------------------------|

  S. Q    T S. Q    T  S.E  T    S. Q    T S. Q    T S. E  T
------------7---------10------|------------5---------7-------|
--8---------------------------|--6---------------------------|
------------------------------|------------------------------|
------------------------------|------------------------------|

  S. E  T S. T S. E  T S. Q    T
---------------------------------|
---------------------------------|
--8-------8----8-------8---------|
---------------------------------|

  T T T S. T T T S. T T T S. T T T S. T S. T S T
--0---7----0--------0---7----0--------0----7-------||
---------------0-----------------0---------------*-||
-------------------------------------------------*-||
---------------------------------------------------||

Duration Legend
---------------
W - whole
H - half
Q - quarter
E - 8th
S - 16th
T - 32nd
X - 64th
. - note dotted
|-n-|  - n-tuplets
Login or Register to remove this ad.