Ads

Temple (Legend of Zelda: Adventure of Link) Guitar Tab

Submitted: Sep 30, 2007 by archard (Last updated: Sep 30, 2007)

5
Average: 5 (1 vote)
Download | Listen
Game: Legend of Zelda: Adventure of Link
Composer(s): Akito Nakatsuka
Style: Transcription
Series: Legend of Zelda

AutoScroll: Slow | Medium | Fast
Temple
The Legend of Zelda: Adventure of Link
Composed by Koji Kondo


e----------------------------------3-1--
B----------3-4-------4-5-------5-4-----4
G--0---2-3-------3---------3------------
D---------------------------------------
A---------------------------------------
E--------------------------------------- x2

e----------------------------------------------------1------
B--3-3-3-3-1-----3-3-3-3-4-----3-3-3-3-1-----3-3-3-3-----4-3
G-----------------------------------------------------------
D-----------------------------------------------------------
A-----------------------------------------------------------
E-----------------------------------------------------------
Login or Register to remove this ad.

14 comments on Temple

There's a whole 'nother part

There's a whole 'nother part to this.... And I love the tabs it's just missing that one part which I am now craving so much!!!

This tab isn't missing

This tab isn't missing anything. You're just thinking of a different version.

This thingy?

e--------------------------------
B--------------------------------
G--3-----3----3---4---4----4-----
D----3-----3----3---3---3----3---
A------5-----5--------5---5------
E--------------------------------

e-----------------------3-1-------
B--------------------4------4-----
G--5-----5----5-------------------
D----3-----3----3-----------------
A------5-----5--------------------
E---------------------------------

@ archard

You did get the tab right, but there was a whole verse missing. Listen to the song again if you must, but yeah a verse is missing

You mean the little intro

You mean the little intro thing?


-3-3---3---3-----6-----5-----4---
---------------------------------
---------------------------------
---------------------------------
---------------------------------
---------------------------------

What about the bass line?

What about the bass line?

Wasn´t there another guitar

Wasn´t there another guitar or bass in the song?

im pretty sure the part you

im pretty sure the part you guys are thinking about is the intro which looks like this

e---------------------------------|
B---------------------------------|
G--5-----5----5---6---6----6------|
D----6-----6----6---6---6----6----|
A------8-----8--------8---8-------|
E---------------------------------|

e----------------------------------|
B----------------------------------|
G--7-----7----7------6---10-8---6--|
D----6-----6----6------------------|
A------8-----8---------------------|
E----------------------------------|

wow that turned out looking

wow that turned out looking pretty bad, but everything is in the right order and it sounds correct.

I fixed it for you Erik. All

I fixed it for you Erik. All you have to do is surround your comment with

tags and it will preformat it so that every character takes up the same amount of space. I'll post a notice about this somewhere.

e----------------------------

e----------------------------------3-1--
B----------3-4-------4-5-------5-4-----4
G--0---2-3-------3---------3------------
D---------------------------------------
A---------------------------------------
E--------------------------------------- x2

e----------------------------------------------------1------
B--3-3-3-3-1-----3-3-3-3-4-----3-3-3-3-1-----3-3-3-3-----4-3
G-----------------------------------------------------------
D-----------------------------------------------------------
A-----------------------------------------------------------
E-----------------------------------------------------------

e----------------------------------3-1--
B----------3-4-------4-5-------5-4-----4
G--0---2-3-------3---------3------------
D---------------------------------------
A---------------------------------------
E--------------------------------------- x2

here come's another part and wut Emmanuel say's is true
that vanished lol

http://www.midishrine.com/ostepop/nes/Zelda_II_-_The_Adventures_of_Link/... listen to the part after 40 secs

No, that is actually in the

No, that is actually in the original song. 40 seconds to about 50 seconds.

maybe you guys are thinking

maybe you guys are thinking of the super smash bros melee version?

nah its cool

just what i been looking for thanks.