Ads

Great Palace (Legend of Zelda: Adventure of Link) Bass/Guitar Tab

Submitted: Oct 03, 2007 by archard (Last updated: Apr 05, 2010)

4.8
Average: 4.8 (5 votes)
Download | Listen
Game: Legend of Zelda: Adventure of Link
Composer(s): Akito Nakatsuka
Style: 2 or more instruments, Transcription
Series: Legend of Zelda

AutoScroll: Slow | Medium | Fast
Game: Zelda 2 The Adventure of Link
Song: Great Palace
Composer: Koji Kondo
Platform: NES
Year: 1987
Tabber: Nexon

Standart Tuning:     E A D G B e

Guitar 1
Intro:

e||----------------------------------------------------------|
B||----------------------------------------------------------|
G||----------------------------------------------------------|
D||----------------------------------------------------------|
A||----12----10--12----------10------10--12--14----12--10----|
E||--------------------12--------13--------------------------|

Guitar 2
Intro:

e||------------0----------------------------------|
B||----5----3-------0----3--1--1--1--3----3--3----|
G||-----------------------------------------------|
D||-----------------------------------------------|
A||-----------------------------------------------|
E||-----------------------------------------------|

Bass
Intro:

G||----12----10--12----------10--------------12----12--12----|
D||--------------------12--------13--13--13------------------|
A||----------------------------------------------------------|
E||----------------------------------------------------------|

Guitar 1
Melody:

e||-------------------10--12--19----17---------15----14--------13----12-------|
B||-----------12--13----------------------17--------------15--------------13--|
G||--14---14------------------------------------------------------------------|	2x
D||---------------------------------------------------------------------------|
A||---------------------------------------------------------------------------|
E||---------------------------------------------------------------------------|


e||------------10---13------11--13----15--13--11--
B||--------13-------------------------------------
G||--13-------------------------------------------
D||-----------------------------------------------
A||-----------------------------------------------
E||-----------------------------------------------


e||--13---11--10----------------------------|
B||----------------16--15--13--15---13--11--|
G||-----------------------------------------|  2x
D||-----------------------------------------|
A||-----------------------------------------|
E||-----------------------------------------|



e||----------12---------------15---14---------------12---------------------------|
B||-13---------------13--------------------13-----------------------------12-----|
G||-----14---------------14--------------------14--------------------13----------|
D||---------------------------------------------------------14--15---------------|
A||------------------------------------------------------------------------------|
E||------------------------------------------------------------------------------|

repeat without intro....

Guitar 2
Harmony:

e||--------0--5--------0--4--------0--3--------0--2--|
B||-----1-----------1-----------1-----------1--------|
G||--2-----------2-----------2-----------2-----------|  4x
D||--------------------------------------------------|
A||--------------------------------------------------|
E||--------------------------------------------------|


e||-----------1-----------1-----------1-----------1--|
B||-----1--3--------1--3--------1--3--------1--3-----|
G||--1-----------1-----------1-----------1-----------|  4x
D||--------------------------------------------------|
A||--------------------------------------------------|
E||--------------------------------------------------|


e||--------0--5--------0--4--------0--3--------0--2--|
B||-----1-----------1-----------1-----------1--------|
G||--2-----------2-----------2-----------2-----------|  4x
D||--------------------------------------------------|
A||--------------------------------------------------|
E||--------------------------------------------------|


e||--------0--5--------0--4-------------0--|
B||-----1-----------1----------0--1--3-----|
G||--2-----------2-------------------------|
D||----------------------------------------|
A||----------------------------------------|
E||----------------------------------------|

repeat without intro....

Bass Tab

G||-14--------14----17--------14--------14----17-------|
D||-------14--------------14--------14--------------14-|  4x
A||----------------------------------------------------|
E||----------------------------------------------------|


G||-----------------13------------------------13-------|
D||-15--------15--------------15--------15-------------|  4x
A||-------15--------------15--------15--------------15-|
E||----------------------------------------------------|


G||-14--------14----17-------|
D||-------14--------------14-|  3x
A||--------------------------|
E||--------------------------|


G||----------13---16-|
D||-14--15-----------|
A||------------------|
E||------------------|

repeat without intro....

Enjoy...
Login or Register to remove this ad.