Ads

Opening (Teenage Mutant Ninja Turtles) Bass Tab

Submitted: Apr 12, 2008 by goldsac (Last updated: May 07, 2008)

5
Average: 5 (1 vote)
Download | Listen
Game: Teenage Mutant Ninja Turtles
Composer(s): Keizo Nakamura
Style: Transcription

AutoScroll: Slow | Medium | Fast
Title:     Opening
Game:      Teenage Mutant Ninja Turtles
Composer:  Keizo Nakamura
Year:      1989
System:    NES
Tabber:    goldsac
Notes:
          - The section A breakdown is just plain bad-ass. That's about all I have to say.
            Oh, and good luck playing this at real-time speed, it's next to impossible.

4 strings; Standard tuning (EADG)

4/4 Time
    
_______________________________________________________________________________


Extremely Fast   bpm=129
  

Intro Drums
                                                               H.            Q      
G||-------------------|-------------------|-------------------|----------------------|
D||-------------------|-------------------|-------------------|---------------21\----|
A||-------------------|-------------------|-------------------|----------------------|
E||-------------------|-------------------|-------------------|----------------------|


    S S S S S S S  E   S  S  S  S  S  S  S    S S S S S S S  S S  S S  S S  E.    
|------------------------------------------|-------------------------------------||
|*-----------------------------------------|--7-7-7-7-7-5-7-10---10---12---------||
|*--7-7-7-7-7-5-7-10--10-10-10-10-10-10-10-|-------------------------------17\---||
|------------------------------------------|-------------------------------------||


Section A

  S S S S S S S  E   S  S  S  S  S  S  S    S S S S S S S  S S S S  S S  S  S  S  
-----------------------------------------|---------------------------------------||
-----------------------------------------|--7-7-7-7-7-5-7-10-------12---------13-||
--7-7-7-7-7-5-7-10--10-10-10-10-10-10-10-|---------------------------------------||
-----------------------------------------|---------------------8-8------10-10----||


Section B

   E.    S  S  S  S  S  S  S  S  S  S  S  S  S     E.    S  S  S  S  S  S  S  S  S  Q      
-----------------------------------------------|------------------------------------------|
--14\---14-14-14-14-14-14-14-------------------|--17\---17-17-17-17-17-17-17-------17\----|
-----------------------------14-14-11-11-------|-----------------------------17-17--------|
-----------------------------------------12-12-|------------------------------------------|


   E.    S  S  S  S  S  E.    S  S  S  S  S     E.    S  Q      S  S  S  S  S  S  S  S  
--------------------14-------------------17-|-----------16\----------------------------|
--------------11-14----------------14-17----|---------------------------------------12-|
--12\---12-12----------15\---15-15----------|--14\---14--------14-14-14-14-12-13-14----|
--------------------------------------------|------------------------------------------|


   E.    S  S  S  S  S  S  S  S  S  S  S  S  S     E.    S  S  S  S  S  S  S  S  S  Q      
-----------------------------------------------|------------------------------------------|
--14\---14-14-14-14-14-14-14-------------------|--17\---17-17-17-17-17-17-17-------17\----|
-----------------------------14-14-11-11-------|-----------------------------17-17--------|
-----------------------------------------12-12-|------------------------------------------|


   E.    S  S  S  S  S  E.    S  Q        S S S S S S S S  S S S E  S  S S  
-----------14-14----14----------16\----|-----------------------------------||
---------------------------------------|---------------------------------7-||
--12\---12-------12----15\---14--------|--7-7-7-7-5-5-7-7-10-9-8-7--7-10---||
---------------------------------------|-----------------------------------||


Section C

   S  S  S  S  S  S  S  E   S  S  S  S  S  S  S  
-----------16----16----16--------13----14----15-|
------------------------------------------------|
--14-14-14----14----14-----14-11----12----13----|
------------------------------------------------|


   S  S  S  S  S  S  S  E   S  S  S  S  S  S  S  
-----------16----16----16--------13----14----15-|
------------------------------------------------|
--14-14-14----14----14-----14-11----12----13----|
------------------------------------------------|


   S  S  S  S  S  S  S  E   S  S  S  S  S  S  S  
-----------16----16----16--------13----14----15-|
------------------------------------------------|
--14-14-14----14----14-----14-11----12----13----|
------------------------------------------------|


   S  S  S  S  S  S  S  S  S  S  S  S  S  S  S  S    
---------------------------------------------------||
-----16-------14----------------------------------*||
--14----14-12----12----16-------15-------14----12-*||
--------------------14----14-13----13-12----10-----||




Duration Legend
---------------
W - whole
H - half
Q - quarter
E - 8th
S - 16th
. - note dotted
| - tied note
\ -  slide out downwards
Login or Register to remove this ad.