Ending Theme (Super Mario Brothers 2) Guitar Tab

Submitted: Oct 10, 2007 by Kabukibear (Last updated: Sep 20, 2009)

5
Average: 5 (8 votes)
Download | Listen
Game: Super Mario Brothers 2
Composer(s): Koji Kondo
Style: Arrangement, Fingerstyle
Series: Mario

AutoScroll: Slow | Medium | Fast
Ending Theme                                   
~Super Mario Bros 2~
Composed by: Koji Kondo
Arranged by: Justin Lincoln

Drop D Tuning
                                       (III)______________
          |--3--|                       |--3--|             
     Q    E  E  E  E  E  E  E     E.  S E  E  E  Q    Q     
E||--0-------------L--1--0-----|------0--------------------|
B||-------------------------1--|--3-----6-------------3----|
G||--0-------------L--2--0-----|------0-3------------------|
D||-------------------------2--|--3-------------------3----|
A||--3----3--3--3--3-----3-----|--3-----3--3--3--3----3----|
D||----------------------------|---------------------------|

____________________________
       |--3--|                       |--3--|             
  Q    E  E  E  E  E  E  S S    Q    E  E  E  Q    Q     
--3-------------L------------|--0-----------------------|
-------------------6-----5-3-|---------------------3----|
--3-------------L--3---------|--0-----------------------|
-----------------------------|---------------------3----|
--3----3--3--3--3-----3------|--3----3--3--3--3----1----|
-----------------------------|--------------------------|

                              (V)__________
       |--3--|                      |--3--|               
  Q    E  E  E  E  E  E  E     Q    E  E  E  E  E  E  E   
----------------------------|----------------------------|
--1----------------0--------|-------------------0-----3--|
----------------------5--7--|--5-------------------5-----|
--2-------------------------|----------------------------|
--0----0--0--0--------------|--7-------------------------|
----------------6-----6-----|--5----5--5--5--4-----4-----|

                              (V)___________________
       |--3--|                      |--3--|             
  Q    E  E  E  E  E  E  E     Q    E  E  E  Q    Q     
----------------------------|--3-------------L---------|
--1-------------------1--3--|--------------------------|
-------------------2--------|--5-------------4---------|
--0-------------------------|--------------------------|
----------------------------|--------------------------|
--3----3--3--3--3-----3-----|--5----5--5--5--5----5----|


       |--3--|                       |--3--|             
  Q    E  E  E  E  E  E  E     E.  S E  E  E  Q    Q     
--0-------------L--1--0-----|--------3------------------|
-------------------------1--|--3---3-3------------------|
--0-------------L--2--0-----|--4-------------------0----|
-------------------------2--|---------------------------|
--3----3--3--3--3-----3-----|--2-----2--2--2--2----2----|
----------------------------|---------------------------|


       |--3--|                       |--3--|             
  Q    E  E  E  E  E  E  E     E.  S E  E  E  Q    Q     
----------------------------|--------1------------------|
--3-------------L--4--3-----|--1---1-1------------------|
--3-------------L--3--3--3--|--2------------------------|
----------------------------|----------------------3----|
--1----1--1--1--1-----1-----|--0-----0--0--0--0----0----|
----------------------------|---------------------------|

                              (V)___________________
       |--3--|                      |--3--|             
  Q    E  E  E  E  E  E  E     Q    E  E  E  Q    Q     
----------------------------|--------------------------|
-------------------------6--|--5-----------------------|
--5-------------L--5--7-----|--5-------------5---------|
--6-------------L--6--6-----|----------------5----5----|
----------------------------|---------------------7----|
--6----6--6--6--6-----6-----|--5----5--5--5--5----5----|


       |--3--|                      |--3--|               
  Q    E  E  E  E  E  E  E     Q    E  E  E  E  E  E  E   
----------------------------|-------------------------0--|
----------------------0--1--|----------------------0-----|
--2-------------L--2--------|--2-------------L--2--------|
--3-------------L--3--3-----|--3-------------L--3--3--3--|
----------------------------|----------------------------|
--0----0--0--0--0-----0-----|--5----5--5--5--5-----5-----|

               (I)___________
       |--3--|       |--3--|          |--3--|                                   
  Q    E  E  E  Q    E  E  E     Q    E  E  E  H           Q    Q    Q    Q     
------------------------------|-------------------------|----------------------|
----------------1-------------|--1----------------------|----------------------|
--5---------------------------|--0----------------------|-------0---------0----|
--6-------------3-------------|--2----------------------|----------------------|
----------------1----1--1--1--|--3----3--3--3--3--------|--3---------2---------|
--6----6--6--6----------------|-------------------------|----------------------|


  Q    Q    Q    Q       Q    Q    Q    Q       Q    Q    Q    Q     
----------------------|----------------------|----------------------|
----------------------|----------------------|----------------------|
-------0---------0----|-------0---------0----|-------0---------0----|
----------------------|----------------------|----------------------|
--0---------2---------|--3---------2---------|--0---------2---------|
----------------------|----------------------|----------------------|


    E  E  E  E  E  E  E  E     E  E  E  E  E  E  E  E   
|---0--1--3-----------------|--------0-----------------|
|------------3-----3-----3--|--1--3-----0-----0-----0--|
|*--------0-----------0-----|--------0-----------0-----|
|*--------------------------|--------------------------|
|---3-----------2-----------|--0-----------------------|
|---------------------------|--------------5-----------|


  E  E  E  E  E  E  E  E     E  E  E  E  E  E  Q       E  E  E  E  E  E  E  E   
--------------------------|-------------------------|--0--1--3-----------3--7--|
-----0--1-----------------|-----0--1--0-------------|-----------3-----3--------|
--2--------0-----0-----0--|--2--------------5--7----|--------0-----------0-----|
--------3-----------4-----|--------0----------------|--------------------------|
--------------------------|-------------------------|--3-----------2-----------|
--3-----------2-----------|--0-----------5----------|--------------------------|


  E   E  E  E  E  E  E  E     E  E  E  E  E  E  E  E     Q    Q    H         
--8--10--8--7-----5--3--1--|--0-----------------------|---------------------|
---------------------------|-----6--8--------3--1--0--|--1---------1--------|
---------------------------|-----------7--------------|-------0----0--------|
---------------------3-----|--------------------0-----|------------2--------|
---------8-----0-----------|--------7-----------------|--3---------3--------|
--8------------------------|--5-----------5-----------|---------------------|


  E  E  E  E  E  E  E  E     Q    Q    Q    E     E  E  E  E  E  E  E  E   
--------------------------|--------------------|--------------------------|
--------------------6--8--|--------------------|-----------------------6--|
--5--7--5--7-----8--------|--------------------|--5--7--5--7-----8--------|
--------------------------|--------------------|--------------------------|
--------6-----------6-----|-------7---------7--|--------6-----------6-----|
--6-----------6-----------|--5---------5-------|--6-----------6-----------|


  Q    Q    Q    Q       E  E  E  E  E  E  E  E     E  E  E  E  Q    Q     
----------------------|--------------------------|------------------------|
--8-------------------|-----------------------6--|-----5------------------|
----------------------|--5--7--5--7-----8--------|--------5---------------|
----------------------|--------------------------|-----------5------------|
-------7---------7----|--------6-----------6-----|--------7----------7----|
--5---------5---------|--6-----------6-----------|--5-----------5---------|


  E  E  E  E  E  E  E  E     Q    Q    E  E  E  E     
--------------------------|-------------------------||
-----3--1--3--------0--1--|--3------------------0---||
--5--------------2--------|---------------0--------*||
--------0-----------0-----|-------0----------0-----*||
--------------------------|-------------------------||
--4-----------4-----------|--5---------5------------||


  E  E  E  E  E  E  E  E     E  E  E  E  E  E  E  E   
--0--1--3-----------------|--------0-----------------|
-----------3-----3-----3--|--1--3-----0-----0-----0--|
--------0-----------0-----|--------0-----------0-----|
--------------------------|--------------------------|
--3-----------2-----------|--0-----------------------|
--------------------------|--------------5-----------|


  E  E  E  E  E  E  E  E     E  E  E  E  E  E  Q       E  E  E  E  E  E  E  E   
--------------------------|-------------------------|--0--1--3-----------3--7--|
-----0--1-----------------|-----0--1--0-------------|-----------3-----3--------|
--2--------0-----0-----0--|--2--------------5--7----|--------0-----------0-----|
--------3-----------4-----|--------0----------------|--------------------------|
--------------------------|-------------------------|--3-----------2-----------|
--3-----------2-----------|--0-----------5----------|--------------------------|


  E   E  E  E  E  E  E  E     E  E  E  E  E  E  E  E     Q    Q    H         
--8--10--8--7-----5--3--1--|--0-----------------------|---------------------|
---------------------------|-----6--8--------3--1--0--|--1---------1--------|
---------------------------|-----------7--------------|-------0----0--------|
---------------------3-----|--------------------0-----|------------2--------|
---------8-----0-----------|--------7-----------------|--3---------3--------|
--8------------------------|--5-----------5-----------|---------------------|


  ^                  
  W                  
--0----------------||
--1----------------||
--0----------------||
--2----------------||
--3----------------||
-------------------||




Duration Legend
---------------
W - whole
H - half
Q - quarter
E - 8th
S - 16th
T - 32nd
X - 64th
. - note dotted
|-n-|  - n-tuplets


Tablature Legend
----------------
L - tied note
^ - brush up
(#) - Bar the fret number indicated
Login or Register to remove this ad.

3 comments on Ending Theme

thank you so much

thank you so much

AWESOME !!!!

5

AWESOME !!!!

NICE but complicated :p We

5

NICE
but complicated :p
We need practice a lot to this sounds great