Dungeon (StarTropics) Bass/Guitar Tab

Submitted: Feb 10, 2009 by Juja (Last updated: Apr 05, 2010)

5
Average: 5 (1 vote)
Download | Listen
Game: StarTropics
Composer(s): Y. Hirai
Style: 2 or more instruments, Transcription

AutoScroll: Slow | Medium | Fast
Game: StarTropics
Song: dungeon
Composed by: Y. Hirai
Tabbed by: Not So Great Juja (Paul Horses)

Key:
~ = vibrato
p = pull-off
h = hammer-on
b = bend
/ = slide
pm = palm-mute
tr = tremolo picking


guitar 1:


e|-----------------------13-15-15---15-15--|-----------------------13----------------|
B|----------13-15--13-15-------------------|----------13-15--13-15-------------------|
G|-12-14-15--------------------------------|-12-14-15-----------------12-12---12-12--|
D|-----------------------------------------|-----------------------------------------| x2
A|-----------------------------------------|-----------------------------------------|
E|-----------------------------------------|-----------------------------------------|



e|---------------------------------------------|
B|-15~---13------------------------------------|
G|----------15-14-15-12~---14-15-14------------|
D|----------------------------------15-12~-----|
A|---------------------------------------------|
E|---------------------------------------------|



e|---------------------------------------------|
B|-15~---13------------------------------------|
G|----------15-14-15-12~---14-15-14----12~-----|
D|----------------------------------15---------|
A|---------------------------------------------|
E|---------------------------------------------|



e|-------------------------------------------|
B|----------------15-13----------------------|
G|----------12-15-------14-12~---14-15-14----|
D|-13-13-13-------------------------------15-|
A|-------------------------------------------|
E|-------------------------------------------|



e|--------------------------------------------------|
B|----------------15-13-----------------------------|
G|----------12-15-------14-12~---14-15-14----12~----|
D|-13-13-13-------------------------------15--------|
A|--------------------------------------------------|
E|--------------------------------------------------|


=====================================================


guitar 2:


e|---6-------6---------------------------|
B|-8-----6-8-----8-6---8--------8--------|
G|-----5-------5-----9--------9--------9-|
D|-----------------------8-10-----8-10---| x4
A|---------------------------------------|
E|---------------------------------------|



e|----------------------------------|
B|-8----8-6-6-----6-4---4-6-6-----6-|
G|----7-------5-5-----3-------5-5---|
D|----------------------------------| x4
A|----------------------------------|
E|----------------------------------|



e|------------------------------------------------|
B|---------8-----------10-------8-11-----------10-|
G|-8-----8---10-----10----12--8------10-----10----|
D|----10---------12----------------------12-------| x2
A|------------------------------------------------|
E|------------------------------------------------|



e|-----------------------------------|
B|-8----6-8-8-----6-8----6-8-8-----6-|
G|----7-------7-7------7-------7-7---|
D|-----------------------------------|
A|-----------------------------------|
E|-----------------------------------|


====================================================


bass:


G|--------------------------------17---------17-|
D|---------17---------17------17---------17-----|
A|-----17---------17------15---------15---------| x4
E|-15---------15--------------------------------|



G|----------------------------------------------|
D|---------17---------15----------13---------15-|
A|-----17---------15----------13---------15-----| x4
E|-15---------13----------11---------13---------|



G|----------------------------------------------|
D|--------10----------12----------13---------15-|
A|----10----------12----------13---------15-----| x4
E|-8----------10----------11---------13---------|



G|----------------------------------------------|
D|---------17---------17----------17---------17-|
A|-----17---------17----------17---------17-----|
E|-15---------15----------15---------15---------|
Login or Register to remove this ad.

6 comments on Dungeon

How much does this differ

How much does this differ from the arrangement you recorded?

Hmm, I'm not entirely sure. I

Hmm, I'm not entirely sure. I think the whole thing that I played was two frets lower than the actual game for some reason. Then I added some stuff like clean rhythm chords in the first half and distorted ones in the second half. I think I tried to add another guitar to sort of harmonize with the lead in the second half or something. So yeah, those should be the main differences.

Hmmm. How about the intro to

Hmmm. How about the intro to your version? (Of which I am very fond.)

Ah, the intro is just another

Ah, the intro is just another section of the song but played without the lead.

It'd be like this:

e|----------------------------------|
B|-8----8-6-6-----6-4---4-6-6-----6-|
G|----7-------5-5-----3-------5-5---|
D|----------------------------------|
A|----------------------------------|
E|----------------------------------|


e|----------------------------------|
B|-8----6-8-8-----6-8---6-8-8-----6-|
G|----7-------7-7-----7-------7-7---|
D|----------------------------------|
A|----------------------------------|
E|----------------------------------|

Hmm, since somebody actually likes it, maybe I'll re-record it one of these days.

You should. I use to really

You should. I use to really enjoy your stuff but you haven't put anything up on your youtube account in ages.

You could be fixed

Bass is too high, making it more of a guitar three.
I dropped sixth string down to c and played everything one octave lower. It sounds much better