Act IV, Stage 3 (Ninja Gaiden) Bass Tab

Submitted: Aug 23, 2008 by chiqueto_x (Last updated: Aug 23, 2008)

0
Download | Listen
Game: Ninja Gaiden
Composer(s): Keiji Yamagishi
Style: Transcription

AutoScroll: Slow | Medium | Fast
Act IV, Stage 3
Ninja Gaiden



     W                   E  Q.     E  Q.         E  Q.      E  Q     S  S  
G||-------------------|--9---------9---------|----------------------------|
D||-------------------|----------------------|--10---------10-------11-12-|
A||-------------------|----------------------|----------------------------|
E||-------------------|----------------------|----------------------------|


  E  Q.     E  Q.         E  Q.      E  Q     S  S    E  H        E  E  S S  
--9---------9---------|----------------------------|--9-----------9-----9---|
----------------------|--10---------10-------11-12-|------------------------|
----------------------|----------------------------|------------------------|
----------------------|----------------------------|------------------------|


   E  H         E  E   S  S    E  H        E  E  S S  
----------------------------|--9-----------9-----9---|
--10-----------10-----11-12-|------------------------|
----------------------------|------------------------|
----------------------------|------------------------|


   E  H         E  E   S  S    S S S S S S S S S S S S S S S S  
----------------------------|--9---9---9---9---9---9---9---9---|
--10-----------10-----11-12-|----------------------------------|
----------------------------|----------------------------------|
----------------------------|----------------------------------|


   S S  S S  S S  S S  S S  S S  S S S  S    S S S S S S S S S S S S S S S S  
-------------------------------------9-10-|--9---9---9---9---9---9---9---9---|
--10---10---10---10---10---10---10--------|----------------------------------|
------------------------------------------|----------------------------------|
------------------------------------------|----------------------------------|


   S S  S S  S S  S S  S S  S S  S S S  S    S S S S S S S S S S S S S S S S  
-------------------------------------9-10-|--9---9---9---9---9---9---9---9---|
--10---10---10---10---10---10---10--------|----------------------------------|
------------------------------------------|----------------------------------|
------------------------------------------|----------------------------------|


   S S  S S  S S  S S  S S  S S  S S S  S    S S S S S S S S S S S S S S S S  
-------------------------------------9-10-|--9---9---9---9---9---9---9---9---|
--10---10---10---10---10---10---10--------|----------------------------------|
------------------------------------------|----------------------------------|
------------------------------------------|----------------------------------|


   S S  S S  S S  S S  S S  S S  S S S  S    S S S S S S S S S S S S S S S S  
-------------------------------------9-10-|--9---9---9---9---9---9---9---9---|
--10---10---10---10---10---10---10--------|----------------------------------|
------------------------------------------|----------------------------------|
------------------------------------------|----------------------------------|


   S S  S S  S S  S S  S S  S S  S S S  S    S S S S S S S S S S S S S S S S  
-------------------------------------9-10-|--9---9---9---9---9---9---9---9---|
--10---10---10---10---10---10---10--------|----------------------------------|
------------------------------------------|----------------------------------|
------------------------------------------|----------------------------------|


   S S  S S  S S  S S  S S  S S  S S S  S    S S S S S S S S S S S S S S S S  
-------------------------------------9-10-|--9---9---9---9---9---9---9---9---|
--10---10---10---10---10---10---10--------|----------------------------------|
------------------------------------------|----------------------------------|
------------------------------------------|----------------------------------|


   S S  S S  S S  S S  S S  S S  S S S  S    S S S S S S S S S S S S S S S S  
-------------------------------------9-10-|--9---9---9---9---9---9---9---9---|
--10---10---10---10---10---10---10--------|----------------------------------|
------------------------------------------|----------------------------------|
------------------------------------------|----------------------------------|


   S S  S S  S S  S S  S S  S S  S S S  S    S S S S S S S S S S S S S S S S  
-------------------------------------9-10-|--9---9---9---9---9---9---9---9---|
--10---10---10---10---10---10---10--------|----------------------------------|
------------------------------------------|----------------------------------|
------------------------------------------|----------------------------------|


   S S  S S  S S  S S  S S  S S  S S S  S    S S S S S S S S S S S S S S S S  
-------------------------------------9-10-|--9---9---9---9---9---9---9---9---|
--10---10---10---10---10---10---10--------|----------------------------------|
------------------------------------------|----------------------------------|
------------------------------------------|----------------------------------|


   S S  S S  S S  S S  S S  S S  S S S  S    S S S S S S S S S S S S S S S S  
-------------------------------------9-10-|--9---9---9---9---9---9---9---9---|
--10---10---10---10---10---10---10--------|----------------------------------|
------------------------------------------|----------------------------------|
------------------------------------------|----------------------------------|


   S S  S S  S S  S S  S S  S S  S S S  S    S S S S S S S S S S S S S S S S  
-------------------------------------9-10-|--9---9---9---9---9---9---9---9---|
--10---10---10---10---10---10---10--------|----------------------------------|
------------------------------------------|----------------------------------|
------------------------------------------|----------------------------------|


   S S  S S  S S  S S  S S  S S  S S S  S   
-------------------------------------9-10-||
--10---10---10---10---10---10---10--------||
------------------------------------------||
------------------------------------------||
Login or Register to remove this ad.