Act IV, Stage 2 (Ninja Gaiden) Bass Tab

Submitted: Aug 23, 2008 by chiqueto_x (Last updated: Aug 23, 2008)

5
Average: 5 (1 vote)
Download | Listen
Game: Ninja Gaiden
Composer(s): Keiji Yamagishi
Style: Transcription

AutoScroll: Slow | Medium | Fast
Act IV, Stage 2
Ninja Gaiden



     W                   S. T S. T S. T S. T S. T S. T S. T S. T  
G||-------------------|-------6---------6---------6---------6----|
D||-------------------|------------------------------------------|
A||-------------------|--4---------4---------4---------4---------|
E||-------------------|------------------------------------------|


    S. T  S.T S. T  S.T S. T  S.T S. T  S.T  
|--------11--------11--------11--------11---|
|*--4---------------------------------------|
|*------------9---------9---------9---------|
|-------------------------------------------|


   S.T  S.T  S.T  S.T  S.T  S.T  S.T  S.T  
------------------------------------------|
-------12--------12--------12--------12---|
------------------------------------------|
--10--------10--------10--------10--------|


   S.T S. T S. T S. T S. T S. T S. T S. T  
-------9---------9---------9---------9----|
------------------------------------------|
------------7---------7---------7---------|
--12--------------------------------------|


  S. T S. T S. T S. T S. T S. T S. T S. T  
-------6---------6---------6--------------|
------------------------------------------|
------------4---------4---------7----8----|
--9---------------------------------------|


  S. T  S.T S. T  S.T S. T  S.T S. T  S.T  
-------11--------11--------11--------11---|
------------------------------------------|
--9---------9---------9---------9---------|
------------------------------------------|


   S.T  S.T  S.T  S.T  S.T  S.T  S.T  S.T  
------------------------------------------|
-------12--------12--------12--------12---|
------------------------------------------|
--10--------10--------10--------10--------|


   S.T S. T S. T S. T S. T S. T S. T S. T  
-------9---------9---------9---------9----|
------------------------------------------|
------------7---------7---------7---------|
--12--------------------------------------|


  S. T S. T S. T S. T S. T S. T S. T S. T  
-------6---------6---------6--------------|
------------------------------------------|
------------4---------4---------7----8----|
--9---------------------------------------|


  S. T  S.T  S.T S. T  S.T S. T S. T S. T    S. T S. T S. T S. T S. Q.     T  
-------11--------9---------7---------6----|----------------------------------|
------------------------------------------|----------------------------------|
--9---------------------------------------|--4----4----4----4----4-----------|
------------12--------10--------9---------|----------------------------------|


  S. T  S.T S. T  S.T S. T  S.T S. T  S.T  
-------11--------11--------11--------11---|
--4---------------------------------------|
------------9---------9---------9---------|
------------------------------------------|


   S.T  S.T  S.T  S.T  S.T  S.T  S.T  S.T  
------------------------------------------|
-------12--------12--------12--------12---|
------------------------------------------|
--10--------10--------10--------10--------|


   S.T S. T S. T S. T S. T S. T S. T S. T  
-------9---------9---------9---------9----|
------------------------------------------|
------------7---------7---------7---------|
--12--------------------------------------|


  S. T S. T S. T S. T S. T S. T S. T S. T  
-------6---------6---------6--------------|
------------------------------------------|
------------4---------4---------7----8----|
--9---------------------------------------|


  S. T  S.T S. T  S.T S. T  S.T S. T  S.T  
-------11--------11--------11--------11---|
------------------------------------------|
--9---------9---------9---------9---------|
------------------------------------------|


   S.T  S.T  S.T  S.T  S.T  S.T  S.T  S.T  
------------------------------------------|
-------12--------12--------12--------12---|
------------------------------------------|
--10--------10--------10--------10--------|


   S.T S. T S. T S. T S. T S. T S. T S. T  
-------9---------9---------9---------9----|
------------------------------------------|
------------7---------7---------7---------|
--12--------------------------------------|


  S. T S. T S. T S. T S. T S. T S. T S. T  
-------6---------6---------6--------------|
------------------------------------------|
------------4---------4---------7----8----|
--9---------------------------------------|


  S. T  S.T S. T  S.T S. T  S.T S. T  S.T  
-------11--------11--------11--------11---|
------------------------------------------|
--9---------9---------9---------9---------|
------------------------------------------|


   S.T  S.T  S.T  S.T  S.T  S.T  S.T  S.T  
------------------------------------------|
-------12--------12--------12--------12---|
------------------------------------------|
--10--------10--------10--------10--------|


   S.T S. T S. T S. T S. T S. T S. T S. T  
-------9---------9---------9---------9----|
------------------------------------------|
------------7---------7---------7---------|
--12--------------------------------------|


  S. T S. T S. T S. T S. T S. T S. T S. T  
-------6---------6---------6--------------|
------------------------------------------|
------------4---------4---------7----8----|
--9---------------------------------------|


  S. T  S.T S. T  S.T S. T  S.T S. T  S.T  
-------11--------11--------11--------11---|
------------------------------------------|
--9---------9---------9---------9---------|
------------------------------------------|


   S.T  S.T  S.T  S.T  S.T  S.T  S.T  S.T  
------------------------------------------|
-------12--------12--------12--------12---|
------------------------------------------|
--10--------10--------10--------10--------|


   S.T S. T S. T S. T S. T S. T S. T S. T  
-------9---------9---------9---------9----|
------------------------------------------|
------------7---------7---------7---------|
--12--------------------------------------|


  S. T S. T S. T S. T S. T S. T S. T S. T  
-------6---------6---------6--------------|
------------------------------------------|
------------4---------4---------7----8----|
--9---------------------------------------|


  S. T  S.T S. T  S.T S. T  S.T S. T  S.T  
-------11--------11--------11--------11---|
------------------------------------------|
--9---------9---------9---------9---------|
------------------------------------------|


   S.T  S.T  S.T  S.T  S.T  S.T  S.T  S.T  
------------------------------------------|
-------12--------12--------12--------12---|
------------------------------------------|
--10--------10--------10--------10--------|


   S.T S. T S. T S. T S. T S. T S. T S. T  
-------9---------9---------9---------9----|
------------------------------------------|
------------7---------7---------7---------|
--12--------------------------------------|


  S. T S. T S. T S. T S. T S. T S. T S. T  
-------6---------6---------6--------------|
------------------------------------------|
------------4---------4---------7----8----|
--9---------------------------------------|


  S. T  S.T S. T  S.T S. T  S.T S. T  S.T  
-------11--------11--------11--------11---|
------------------------------------------|
--9---------9---------9---------9---------|
------------------------------------------|


   S.T  S.T  S.T  S.T  S.T  S.T  S.T  S.T  
------------------------------------------|
-------12--------12--------12--------12---|
------------------------------------------|
--10--------10--------10--------10--------|


   S.T S. T S. T S. T S. T S. T S. T S. T  
-------9---------9---------9---------9----|
------------------------------------------|
------------7---------7---------7---------|
--12--------------------------------------|


  S. T S. T S. T S. T S. T S. T S. T S. T  
-------6---------6---------6--------------|
------------------------------------------|
------------4---------4---------7----8----|
--9---------------------------------------|


  S. T  S.T  S.T S. T  S.T S. T S. T S. T    S. T S. T S. T S. T S. Q.     T  
-------11--------9---------7---------6----|----------------------------------|
------------------------------------------|----------------------------------|
--9---------------------------------------|--4----4----4----4----4-----------|
------------12--------10--------9---------|----------------------------------|


  S. T  S.T S. T  S.T S. T  S.T S. T  S.T  
-------11--------11--------11--------11---|
--4---------------------------------------|
------------9---------9---------9---------|
------------------------------------------|


   S.T  S.T  S.T  S.T  S.T  S.T  S.T  S.T  
------------------------------------------|
-------12--------12--------12--------12---|
------------------------------------------|
--10--------10--------10--------10--------|


   S.T S. T S. T S. T S. T S. T S. T S. T  
-------9---------9---------9---------9----|
------------------------------------------|
------------7---------7---------7---------|
--12--------------------------------------|


  S. T S. T S. T S. T S. T S. T S. T S. T  
-------6---------6---------6--------------|
------------------------------------------|
------------4---------4---------7----8----|
--9---------------------------------------|


  S. T  S.T S. T  S.T S. T  S.T S. T  S.T  
-------11--------11--------11--------11---|
------------------------------------------|
--9---------9---------9---------9---------|
------------------------------------------|


   S.T  S.T  S.T  S.T  S.T  S.T  S.T  S.T  
------------------------------------------|
-------12--------12--------12--------12---|
------------------------------------------|
--10--------10--------10--------10--------|


   S.T S. T S. T S. T S. T S. T S. T S. T  
-------9---------9---------9---------9----|
------------------------------------------|
------------7---------7---------7---------|
--12--------------------------------------|


  S. T S. T S. T S. T S. T S. T S. T S. T  
-------6---------6---------6--------------|
------------------------------------------|
------------4---------4---------7----8----|
--9---------------------------------------|


  S. T  S.T S. T  S.T S. T  S.T S. T  S.T  
-------11--------11--------11--------11---|
------------------------------------------|
--9---------9---------9---------9---------|
------------------------------------------|


   S.T  S.T  S.T  S.T  S.T  S.T  S.T  S.T  
------------------------------------------|
-------12--------12--------12--------12---|
------------------------------------------|
--10--------10--------10--------10--------|


   S.T S. T S. T S. T S. T S. T S. T S. T  
-------9---------9---------9---------9----|
------------------------------------------|
------------7---------7---------7---------|
--12--------------------------------------|


  S. T S. T S. T S. T S. T S. T S. T S. T  
-------6---------6---------6--------------|
------------------------------------------|
------------4---------4---------7----8----|
--9---------------------------------------|


  S. T  S.T S. T  S.T S. T  S.T S. T  S.T  
-------11--------11--------11--------11---|
------------------------------------------|
--9---------9---------9---------9---------|
------------------------------------------|


   S.T  S.T  S.T  S.T  S.T  S.T  S.T  S.T  
------------------------------------------|
-------12--------12--------12--------12---|
------------------------------------------|
--10--------10--------10--------10--------|


   S.T S. T S. T S. T S. T S. T S. T S. T  
-------9---------9---------9---------9----|
------------------------------------------|
------------7---------7---------7---------|
--12--------------------------------------|


  S. T S. T S. T S. T S. T S. T S. T S. T    
-------6---------6---------6---------------||
------------------------------------------*||
------------4---------4---------7----8----*||
--9----------------------------------------||
Login or Register to remove this ad.