Act III, Stage 2 (Ninja Gaiden) Bass Tab

Submitted: Aug 23, 2008 by chiqueto_x (Last updated: Aug 23, 2008)

5
Average: 5 (1 vote)
Download | Listen
Game: Ninja Gaiden
Composer(s): Keiji Yamagishi
Style: Transcription

AutoScroll: Slow | Medium | Fast
Act III, Stage 2
Ninja Gaiden


     W                   W                   E  E  E   E  E  E   E  E   
G||-------------------|--2----------------|--2--9-----10-----9---------|
D||-------------------|-------------------|---------------------10-----|
A||-------------------|-------------------|----------------------------|
E||-------------------|-------------------|----------------------------|


  E   E  E   E  E   E   E  E      E  E  E   E  E  E   E  E   
-----11-----12-----11---------|------9-----10-----9---------|
--7--------------------12-----|----------------------10-----|
------------------------------|--12-------------------------|
------------------------------|-----------------------------|


  E   E  E   E  E   E   E  E      E   E  E   E  E   E   E  E   
-----11-----12-----11---------|-------------------------------|
--7--------------------12-----|------12-----13-----12---------|
------------------------------|--10--------------------13-----|
------------------------------|-------------------------------|


   E  E  E   E  E  E   E  E      E  E  E  E  E  E  E  E   
------9-----10-----9---------|------7-----8-----7--------|
----------------------10-----|---------------------8-----|
--10-------------------------|--10-----------------------|
-----------------------------|---------------------------|


  E  E  E   E  E  E   E  E     E  E  E   E  E  E   E  E   
--0--9-----10-----9---------|-----9-----10-----9---------|
---------------------10-----|--7------------------10-----|
----------------------------|----------------------------|
----------------------------|----------------------------|


  E   E  E   E  E   E   E  E      E  E  E   E  E  E   E  E   
-----11-----12-----11---------|------9-----10-----9---------|
--7--------------------12-----|----------------------10-----|
------------------------------|--12-------------------------|
------------------------------|-----------------------------|


  E   E  E   E  E   E   E  E      E   E  E   E  E   E   E  E   
-----11-----12-----11---------|-------------------------------|
--7--------------------12-----|------12-----13-----12---------|
------------------------------|--10--------------------13-----|
------------------------------|-------------------------------|


   E  E  E   E  E  E   E  E      E  E  E  E  E  E  E  E   
------9-----10-----9---------|------7-----8-----7--------|
----------------------10-----|---------------------8-----|
--10-------------------------|--10-----------------------|
-----------------------------|---------------------------|


  E  E  E   E  E  E   E  E      E   E  H         E   E     Q    H.            
--0--9-----10-----9---------|--10--10-----------13------|--------------------|
---------------------10-----|-----------------------11--|--L-----------------|
----------------------------|---------------------------|--------------------|
----------------------------|---------------------------|--------------------|


  E  E  H         E  E     Q    H.               E   E  H         E   E   
--9--9------------------|--------------------|--10--10-----------13------|
-----------------10--8--|--L-----------------|-----------------------11--|
------------------------|--------------------|---------------------------|
------------------------|--------------------|---------------------------|


  Q    H.              E  E  H        E  E     E  S S E  S S S S S S S S S S  
--------------------|--2--2-----------6--5--|--7----7-5----5-4---4---2---2---|
--L-----------------|-----------------------|--------------------------------|
--------------------|-----------------------|--------------------------------|
--------------------|-----------------------|--------------------------------|


  E  E  E   E  E  E   E  E     E   E  E   E  E   E   E  E   
--2--9-----10-----9---------|-----11-----12-----11---------|
---------------------10-----|--7--------------------12-----|
----------------------------|------------------------------|
----------------------------|------------------------------|


   E  E  E   E  E  E   E  E     E   E  E   E  E   E   E  E   
------9-----10-----9---------|-----11-----12-----11---------|
----------------------10-----|--7--------------------12-----|
--12-------------------------|------------------------------|
-----------------------------|------------------------------|


   E   E  E   E  E   E   E  E      E  E  E   E  E  E   E  E   
-------------------------------|------9-----10-----9---------|
------12-----13-----12---------|----------------------10-----|
--10--------------------13-----|--10-------------------------|
-------------------------------|-----------------------------|


   E  E  E  E  E  E  E  E     E  E  E   E  E  E   E  E   
------7-----8-----7--------|--0--9-----10-----9---------|
---------------------8-----|---------------------10-----|
--10-----------------------|----------------------------|
---------------------------|----------------------------|


  E  E  E   E  E  E   E  E     E   E  E   E  E   E   E  E   
-----9-----10-----9---------|-----11-----12-----11---------|
--7------------------10-----|--7--------------------12-----|
----------------------------|------------------------------|
----------------------------|------------------------------|


   E  E  E   E  E  E   E  E     E   E  E   E  E   E   E  E   
------9-----10-----9---------|-----11-----12-----11---------|
----------------------10-----|--7--------------------12-----|
--12-------------------------|------------------------------|
-----------------------------|------------------------------|


   E   E  E   E  E   E   E  E      E  E  E   E  E  E   E  E   
-------------------------------|------9-----10-----9---------|
------12-----13-----12---------|----------------------10-----|
--10--------------------13-----|--10-------------------------|
-------------------------------|-----------------------------|


   E  E  E  E  E  E  E  E     E  E  E   E  E  E   E  E   
------7-----8-----7--------|--0--9-----10-----9---------|
---------------------8-----|---------------------10-----|
--10-----------------------|----------------------------|
---------------------------|----------------------------|


   E   E  H         E   E     Q    H.              E  E  H         E  E   
--10--10-----------13------|--------------------|--9--9------------------|
-----------------------11--|--L-----------------|-----------------10--8--|
---------------------------|--------------------|------------------------|
---------------------------|--------------------|------------------------|


  Q    H.               E   E  H         E   E     Q    H.            
--------------------|--10--10-----------13------|--------------------|
--L-----------------|-----------------------11--|--L-----------------|
--------------------|---------------------------|--------------------|
--------------------|---------------------------|--------------------|


  E  E  H        E  E     E  S S E  S S S S S S S S S S  
--2--2-----------6--5--|--7----7-5----5-4---4---2---2---|
-----------------------|--------------------------------|
-----------------------|--------------------------------|
-----------------------|--------------------------------|


  E  E  E   E  E  E   E  E     E   E  E   E  E   E   E  E   
--2--9-----10-----9---------|-----11-----12-----11---------|
---------------------10-----|--7--------------------12-----|
----------------------------|------------------------------|
----------------------------|------------------------------|


   E  E  E   E  E  E   E  E     E   E  E   E  E   E   E  E    
------9-----10-----9---------|-----11-----12-----11---------||
----------------------10-----|--7--------------------12-----||
--12-------------------------|------------------------------||
-----------------------------|------------------------------||
Login or Register to remove this ad.