Act III, Stage 1 (Ninja Gaiden) Bass Tab

Submitted: Aug 23, 2008 by chiqueto_x (Last updated: Aug 23, 2008)

5
Average: 5 (1 vote)
Download | Listen
Game: Ninja Gaiden
Composer(s): Keiji Yamagishi
Style: Transcription

AutoScroll: Slow | Medium | Fast
Act III, Stage 1
Ninja Gaiden


      S.T  S.T  S.T  S.T  S.T  S.T  S.T  S.T  
G||--10---10---10---10---10---10---10---10---|
D||------------------------------------------|
A||------------------------------------------|
E||------------------------------------------|


     S.T  S.T  S.T  S.T  S.T  S.T  S.T  S.T  
|---10---10---10---10---10---10---10---10---|
|*------------------------------------------|
|*------------------------------------------|
|-------------------------------------------|


   S.T  S.T  S.T  S.T  S.T  S.T  S.T  S.T  
-------13--------13--------13--------13---|
------------------------------------------|
--11--------11--------11--------11--------|
------------------------------------------|


   S.T  S.T  S.T  S.T  S.T  S.T  S.T  S.T  
-------12--------12--------12--------12---|
------------------------------------------|
--10--------10--------10--------10--------|
------------------------------------------|


   S.T  S.T  S.T  S.T  S.T  S.T  S.T  S.T  
-------15--------15--------18--------18---|
------------------------------------------|
--13--------13--------16--------16--------|
------------------------------------------|


   S.T  S.T  S.T  S.T  S.T  S.T  S.T  S.T  
------------------------------------------|
--15---15---15---15---15---15---15---15---|
------------------------------------------|
------------------------------------------|


   S.T  S.T  S.T  S.T  S.T  S.T  S.T  S.T  
-------13--------13--------13--------13---|
------------------------------------------|
------------11--------11--------11--------|
--16--------------------------------------|


   S.T  S.T  S.T  S.T  S.T  S.T  S.T  S.T  
-------12--------12--------12--------12---|
------------------------------------------|
--10--------10--------10--------10--------|
------------------------------------------|


   S.T  S.T  S.T  S.T  S.T  S.T  S.T  S.T  
-------15--------15--------18--------18---|
------------------------------------------|
--13--------13--------16--------16--------|
------------------------------------------|


   S.T  S.T  S.T  S.T  S.T  S.T  S.T  S.T  
------------------------------------------|
--15---15---15---15---15---15---15---15---|
------------------------------------------|
------------------------------------------|


   S.T  S.T  S.T  S.T  S.T  S.T  S.T  S.T  
-------13--------13--------13--------13---|
------------------------------------------|
------------11--------11--------11--------|
--16--------------------------------------|


   S.T  S.T  S.T  S.T  S.T  S.T  S.T  S.T  
-------12--------12--------12--------12---|
------------------------------------------|
--10--------10--------10--------10--------|
------------------------------------------|


   S.T  S.T  S.T  S.T  S.T  S.T  S.T  S.T  
-------15--------15--------18--------18---|
------------------------------------------|
--13--------13--------16--------16--------|
------------------------------------------|


   S.T  S.T  S.T  S.T  S.T  S.T  S.T  S.T  
------------------------------------------|
--15---15---15---15---15---15---15---15---|
------------------------------------------|
------------------------------------------|


   S.T  S.T  S.T  S.T  S.T  S.T  S.T  S.T  
-------13--------13--------13--------13---|
------------------------------------------|
------------11--------11--------11--------|
--16--------------------------------------|


   S.T  S.T  S.T  S.T  S.T  S.T  S.T  S.T  
-------12--------12--------12--------12---|
------------------------------------------|
--10--------10--------10--------10--------|
------------------------------------------|


   S.T  S.T  S.T  S.T  S.T  S.T  S.T  S.T  
-------15--------15--------18--------18---|
------------------------------------------|
--13--------13--------16--------16--------|
------------------------------------------|


   S.T  S.T  S.T  S.T  S.T  S.T  S.T  S.T  
------------------------------------------|
--15---15---15---15---15---15---15---15---|
------------------------------------------|
------------------------------------------|


   S.T  S.T  S.T  S.T  S.T  S.T  S.T  S.T  
-------13--------13--------13--------13---|
------------------------------------------|
------------11--------11--------11--------|
--16--------------------------------------|


   S.T  S.T  S.T  S.T  S.T  S.T  S.T  S.T  
-------12--------12--------12--------12---|
------------------------------------------|
--10--------10--------10--------10--------|
------------------------------------------|


   S.T  S.T  S.T  S.T  S.T  S.T  S.T  S.T  
-------15--------15--------18--------18---|
------------------------------------------|
--13--------13--------16--------16--------|
------------------------------------------|


   S.T  S.T  S.T  S.T  S.T  S.T  S.T  S.T  
------------------------------------------|
--15---15---15---15---15---15---15---15---|
------------------------------------------|
------------------------------------------|


   S.T  S.T  S.T  S.T  S.T  S.T  S.T  S.T  
-------13--------13--------13--------13---|
------------------------------------------|
------------11--------11--------11--------|
--16--------------------------------------|


   S.T  S.T  S.T  S.T  S.T  S.T  S.T  S.T  
-------12--------12--------12--------12---|
------------------------------------------|
--10--------10--------10--------10--------|
------------------------------------------|


   S.T  S.T  S.T  S.T  S.T  S.T  S.T  S.T  
-------15--------15--------18--------18---|
------------------------------------------|
--13--------13--------16--------16--------|
------------------------------------------|


   S.T  S.T  S.T  S.T  S.T  S.T  S.T  S.T  
------------------------------------------|
--15---15---15---15---15---15---15---15---|
------------------------------------------|
------------------------------------------|


   S.T  S.T  S.T  S.T  S.T  S.T  S.T  S.T  
-------13--------13--------13--------13---|
------------------------------------------|
------------11--------11--------11--------|
--16--------------------------------------|


   S.T  S.T  S.T  S.T  S.T  S.T  S.T  S.T  
-------12--------12--------12--------12---|
------------------------------------------|
--10--------10--------10--------10--------|
------------------------------------------|


   S.T  S.T  S.T  S.T  S.T  S.T  S.T  S.T          
-------15--------15--------18--------18----||----||
------------------------------------------*||----||
--13--------13--------16--------16--------*||----||
-------------------------------------------||----||
Login or Register to remove this ad.