Act II, Stage 2 (Ninja Gaiden) Bass Tab

Submitted: Aug 23, 2008 by chiqueto_x (Last updated: Aug 23, 2008)

5
Average: 5 (1 vote)
Download | Listen
Game: Ninja Gaiden
Composer(s): Keiji Yamagishi
Style: Transcription

AutoScroll: Slow | Medium | Fast
Act II, Stage 2
Ninja Gaiden


     W                   S S S S S S S S S S S S S S S S  
G||-------------------|----------------------------------|
D||-------------------|----------------------------------|
A||-------------------|--4-4-4-4---4---4---4-4-4---4---4-|
E||-------------------|----------------------------------|


  S S S S S S S S S S S S S S S S    S S S S S S S S S S S S S S S S  
----------------------------------|----------------------------------|
--2-2-2-2---2---2---2-2-2---2---2-|--4-4-4-4---4---4---4-4-4---4---4-|
----------------------------------|----------------------------------|
----------------------------------|----------------------------------|


  S S S S S S S S S S S S S S S S    S S S S S S S S S S S S S S S S  
--1-1-1-1---1---1-1-1-1-1-1-------|----------------------------------|
----------------------------------|----------------------------------|
----------------------------2-2-2-|--4-4-4-4---4---4---4-4-4---4---4-|
----------------------------------|----------------------------------|


  S S S S S S S S S S S S S S S S    S S S S S S S S S S S S S S S S  
----------------------------------|----------------------------------|
--2-2-2-2---2---2---2-2-2---2---2-|--4-4-4-4---4---4---4-4-4---4---4-|
----------------------------------|----------------------------------|
----------------------------------|----------------------------------|


  S S S S S S S S S S S S S S S S    S S S S S S S S S S S S S S S S  
--1-1-1-1---1---1-1-1-1-1-1-------|----------------------------------|
----------------------------------|----------------------------------|
----------------------------2-2-2-|--4-4-4-4---4---4---4-4-4---4---4-|
----------------------------------|----------------------------------|


  S S S S S S S S S S S S S S S S    S S S S S S S S S S S S S S S S  
----------------------------------|----------------------------------|
--2-2-2-2---2---2---2-2-2---2---2-|--4-4-4-4---4---4---4-4-4---4---4-|
----------------------------------|----------------------------------|
----------------------------------|----------------------------------|


  S S S S S S S S S S S S S S S S    S S S S S S S S S S S S S S S S  
--1-1-1-1---1---1-1-1-1-1-1-------|----------------------------------|
----------------------------------|----------------------------------|
----------------------------2-2-2-|--4-4-4-4---4---4---4-4-4---4---4-|
----------------------------------|----------------------------------|


  S S S S S S S S S S S S S S S S    S S S S S S S S S S S S S S S S  
----------------------------------|----------------------------------|
--2-2-2-2---2---2---2-2-2---2---2-|--4-4-4-4---4---4---4-4-4---4---4-|
----------------------------------|----------------------------------|
----------------------------------|----------------------------------|


  S S S S S S S S S S S S S S S S    S S S S S S S S S S S S S S S S  
--1-1-1-1---1---1-1-1-1-1-1-------|----------------------------------|
----------------------------------|----------------------------------|
----------------------------2-2-2-|--4-4-4-4---4---4---4-4-4---4---4-|
----------------------------------|----------------------------------|


  S S S S S S S S S S S S S S S S    S S S S S S S S S S S S S S S S  
----------------------------------|----------------------------------|
--2-2-2-2---2---2---2-2-2---2---2-|--4-4-4-4---4---4---4-4-4---4---4-|
----------------------------------|----------------------------------|
----------------------------------|----------------------------------|


  S S S S S S S S S S S S S S S S    S S S S S S S S S S S S S S S S  
--1-1-1-1---1---1-1-1-1-1-1-------|----------------------------------|
----------------------------------|----------------------------------|
----------------------------2-2-2-|--4-4-4-4---4---4---4-4-4---4---4-|
----------------------------------|----------------------------------|


  S S S S S S S S S S S S S S S S    S S S S S S S S S S S S S S S S  
----------------------------------|----------------------------------|
--2-2-2-2---2---2---2-2-2---2---2-|--4-4-4-4---4---4---4-4-4---4---4-|
----------------------------------|----------------------------------|
----------------------------------|----------------------------------|


  S S S S S S S S S S S S S S S S    S S S S S S S S S S S S S S S S  
--1-1-1-1---1---1-1-1-1-1-1-------|----------------------------------|
----------------------------------|----------------------------------|
----------------------------2-2-2-|--4-4-4-4---4---4---4-4-4---4---4-|
----------------------------------|----------------------------------|


  S S S S S S S S S S S S S S S S    S S S S S S S S S S S S S S S S  
----------------------------------|----------------------------------|
--2-2-2-2---2---2---2-2-2---2---2-|--4-4-4-4---4---4---4-4-4---4---4-|
----------------------------------|----------------------------------|
----------------------------------|----------------------------------|


  S S S S S S S S S S S S S S S S    S S S S S S S S S S S S S S S S  
--1-1-1-1---1---1-1-1-1-1-1-------|----------------------------------|
----------------------------------|----------------------------------|
----------------------------2-2-2-|--4-4-4-4---4---4---4-4-4---4---4-|
----------------------------------|----------------------------------|


  S S S S S S S S S S S S S S S S    S S S S S S S S S S S S S S S S  
----------------------------------|----------------------------------|
--2-2-2-2---2---2---2-2-2---2---2-|--4-4-4-4---4---4---4-4-4---4---4-|
----------------------------------|----------------------------------|
----------------------------------|----------------------------------|


  S S S S S S S S S S S S S S S S    S S S S S S S S S S S S S S S S  
--1-1-1-1---1---1-1-1-1-1-1-------|----------------------------------|
----------------------------------|----------------------------------|
----------------------------2-2-2-|--4-4-4-4---4---4---4-4-4---4---4-|
----------------------------------|----------------------------------|


  S S S S S S S S S S S S S S S S    S S S S S S S S S S S S S S S S  
----------------------------------|----------------------------------|
--2-2-2-2---2---2---2-2-2---2---2-|--4-4-4-4---4---4---4-4-4---4---4-|
----------------------------------|----------------------------------|
----------------------------------|----------------------------------|


  S S S S S S S S S S S S S S S S    S S S S S S S S S S S S S S S S  
--1-1-1-1---1---1-1-1-1-1-1-------|----------------------------------|
----------------------------------|----------------------------------|
----------------------------2-2-2-|--4-4-4-4---4---4---4-4-4---4---4-|
----------------------------------|----------------------------------|


  S S S S S S S S S S S S S S S S    S S S S S S S S S S S S S S S S  
----------------------------------|----------------------------------|
--2-2-2-2---2---2---2-2-2---2---2-|--4-4-4-4---4---4---4-4-4---4---4-|
----------------------------------|----------------------------------|
----------------------------------|----------------------------------|


  S S S S S S S S S S S S S S S S    S S S S S S S S S S S S S S S S  
--1-1-1-1---1---1-1-1-1-1-1-------|----------------------------------|
----------------------------------|----------------------------------|
----------------------------2-2-2-|--4-4-4-4---4---4---4-4-4---4---4-|
----------------------------------|----------------------------------|


  S S S S S S S S S S S S S S S S    S S S S S S S S S S S S S S S S  
----------------------------------|----------------------------------|
--2-2-2-2---2---2---2-2-2---2---2-|--4-4-4-4---4---4---4-4-4---4---4-|
----------------------------------|----------------------------------|
----------------------------------|----------------------------------|


  S S S S S S S S S S S S S S S S    S S S S S S S S S S S S S S S S  
--1-1-1-1---1---1-1-1-1-1-1-------|----------------------------------|
----------------------------------|----------------------------------|
----------------------------2-2-2-|--4-4-4-4---4---4---4-4-4---4---4-|
----------------------------------|----------------------------------|


  S S S S S S S S S S S S S S S S    S S S S S S S S S S S S S S S S  
----------------------------------|----------------------------------|
--2-2-2-2---2---2---2-2-2---2---2-|--4-4-4-4---4---4---4-4-4---4---4-|
----------------------------------|----------------------------------|
----------------------------------|----------------------------------|


  S S S S S S S S S S S S S S S S    S S S S S S S S S S S S S S S S  
--1-1-1-1---1---1-1-1-1-1-1-------|----------------------------------|
----------------------------------|----------------------------------|
----------------------------2-2-2-|--4-4-4-4---4---4---4-4-4---4---4-|
----------------------------------|----------------------------------|


  S S S S S S S S S S S S S S S S    S S S S S S S S S S S S S S S S  
----------------------------------|----------------------------------|
--2-2-2-2---2---2---2-2-2---2---2-|--4-4-4-4---4---4---4-4-4---4---4-|
----------------------------------|----------------------------------|
----------------------------------|----------------------------------|


  S S S S S S S S S S S S S S S S    S S S S S S S S S S S S S S S S   
--1-1-1-1---1---1-1-1-1-1-1-------|----------------------------------||
----------------------------------|----------------------------------||
----------------------------2-2-2-|--4-4-4-4---4---4---4-4-4---4---4-||
----------------------------------|----------------------------------||
Login or Register to remove this ad.