Ads

Promises to Keep (Ninja Gaiden III) Guitar Tab

Submitted: Sep 21, 2008 by Scruffy (Last updated: Sep 21, 2008)

0
Download | Listen
Game: Ninja Gaiden III
Composer(s): Miya, K. Nakabai, L. Shigeno
Style: 2 or more instruments, Transcription

AutoScroll: Slow | Medium | Fast
Game: Ninja Gaiden III
Song: Promises to Keep
Tabbed: September 16th 2008
Tabber: Scruffy


Guitar I & II
						   _
e-------------------------------------------------- |
B--------------------------0--0-------------------- |
G--------1--1--2--2--1--1--------3--3--2--2--1--1-- |
D--1--1-------------------------------------------- |
A-------------------------------------------------- |
E-------------------------------------------------- |
						    |
e-------------------------------------------------- |
B--------------------------0--0-------------------- |
G--------1--1--2--2--1--1--------3--3--2--2--1--1-- |
D--1--1-------------------------------------------- |
A-------------------------------------------------- |
E-------------------------------------------------- |
					           4X
e-------------------------------------------------- |
B-------------------------------------------------- |
G--------------0--0--------2--2--1--1--0--0-------- |
D--------4--4--------4--4--------------------4--4-- |
A--4--4-------------------------------------------- |
E-------------------------------------------------- |
						    |
e-------------------------------------------------- |
B-------------------------------------------------- |
G--------------0--0--------2--2--1--1--0--0-------- |
D--------4--4--------4--4--------------------4--4-- |
A--4--4-------------------------------------------- |
E--------------------------------------------------_|


Guitar I (Melody)

e--------------------------------0----5----4--- 
B--------------0-------2----4------------------ 
G--1--------1-----2----------------------------
D----------------------------------------------
A---------------------------------------------- 
E----------------------------------------------

e-----2--4---7--------4--7--9--------9--11-----
B--------------------------------10------------
G----------------------------------------------
D---------------------------------------------- 
A----------------------------------------------
E---------------------------------------------- 

e--11--15--16-------------------9----11----12--
B---------------------12--10------------------- 
G-----------------13---------------------------
D----------------------------------------------
A----------------------------------------------
E---------------------------------------------- 

e--17----16-----14--16---19--------------------
B----------------------------------------------
G-----------------------------------16--18-----
D-------------------------------18-------------
A---------------------------------------------- 
E----------------------------------------------

e------------------------14--------11--14------
B----------16--------16--------14----------14--
G------18--------18----------------------------
D--19------------------------------------------
A----------------------------------------------
E----------------------------------------------

e-11--14--16-----------------------------------
B----------------------------------------------
G------------------------------------------14--
D------------------------------11----13--------
A-------------------14---12--------------------
E---------------16-----------------------------

e---------------------------------------------- 
B--------------------------12----------12--14--
G--14----13------11--13------------13----------
D----------------------------------------------
A---------------------------------------------- 
E----------------------------------------------

e----------11-----11--15--16-------------------
B------14------------------------------12---10-
G--14------------------------------13----------
D---------------------------------------------- 
A----------------------------------------------
E----------------------------------------------

e--9----11----12----17----16------14--16----19- 
B----------------------------------------------
G----------------------------------------------
D---------------------------------------------- 
A---------------------------------------------- 
E----------------------------------------------

e-------------------------------------14-------
B-------------------------16------16------14--- 
G---------16--18------18------18---------------
D-----18----------19---------------------------
A----------------------------------------------
E----------------------------------------------

e--11--14------11--14--16~---
B----------14----------------
G----------------------------
D----------------------------
A----------------------------
E---------------------------- 


Guitar II (Harmony)

e-----4--6--7--6--4-----4--6--7--6--4-----5--7-
B--4-----------------4-----------------5-------
G----------------------------------------------
D----------------------------------------------
A---------------------------------------------- 
E----------------------------------------------

e-9---7---5-----5--7--9---7---5-----4--6--7--6- 
B------------5-------------------4-------------
G----------------------------------------------
D---------------------------------------------- 
A----------------------------------------------
E---------------------------------------------- 

e--4-----5--7--9--7--5--3--9--11--12---11------
B-----5------------------------------------11--
G----------------------------------------------
D----------------------------------------------
A----------------------------------------------
E----------------------------------------------

e------6--7---6---4-----4--6--7---6---4------5- 
B---9----------------4--------------------5----
G-8--------------------------------------------
D---------------------------------------------- 
A---------------------------------------------- 
E----------------------------------------------

e--7--9---7---5-----4--6--7---6---4-----4--6--7 
B----------------4-------------------4---------
G----------------------------------------------
D---------------------------------------------- 
A---------------------------------------------- 
E----------------------------------------------

e---6--------0------0--2---0--2---0--2--6----9-
B------0--4------2-----------------------------
G----------------------------------------------
D----------------------------------------------
A----------------------------------------------
E---------------------------------------------- 

e--11--14------11--14--------------------------
B----------14------------------11--12--11--9---
G--------------------------13-----------------8
D----------------------13----------------------
A---------------------------------------------- 
E----------------------------------------------

e-----6--7---6---4-----5--7--9--7--5-----5--7--
B--9----------------5-----------------5--------
G----------------------------------------------
D---------------------------------------------- 
A----------------------------------------------
E---------------------------------------------- 

e--9---7---5-----5--7--9--7--5--3--9--11--12--- 
B-------------5--------------------------------
G----------------------------------------------
D---------------------------------------------- 
A---------------------------------------------- 
E---------------------------------------------- 

e-11-----------6--7---6---4-----4--6--7---6---4
B----11-----9----------------4-----------------
G--------8-------------------------------------
D----------------------------------------------
A----------------------------------------------
E----------------------------------------------

e-----5--7--9---7---5-----5--7--9---7---5------ 
B--5-------------------5--------------------4--
G----------------------------------------------
D---------------------------------------------- 
A----------------------------------------------
E---------------------------------------------- 

e-4--6--7---6---4-----4--6--7---6--------0-----
B------------------4---------------0--4------2-
G----------------------------------------------
D----------------------------------------------
A---------------------------------------------- 
E----------------------------------------------

e--0--2---0--2--6-----9--11--14------11--14--11 
B--------------------------------14------------
G----------------------------------------------
D---------------------------------------------- 
A---------------------------------------------- 
E---------------------------------------------- 

e--11--11--11---11--11--11---11--11--11---11---
B----------------------------------------------
G----------------------------------------------
D----------------------------------------------
A----------------------------------------------
E----------------------------------------------

e--11----11~--------
B-------------------
G-------------------
D------------------- 
A-------------------
E-------------------
Login or Register to remove this ad.