Jogging Theme (Mike Tyson's Punch Out) Guitar Tab

Submitted: Sep 30, 2007 by archard (Last updated: Nov 01, 2014)

4.666665
Average: 4.7 (6 votes)
Download | Listen
Game: Mike Tyson's Punch Out
Composer(s): Kenji Yamamoto
Style: Transcription

AutoScroll: Slow | Medium | Fast
Jogging Theme
Mike Tyson's Punch Out
Composed by Koji Yamamoto

9/24/06

e---------12-10----------------10--------------------------------
B--10-----------13-12-------------13-12-10----------13-12-10-----
G---------------------12-------------------10----------------12-9
D----------------------------------------------------------------
A----------------------------------------------------------------
E----------------------------------------------------------------

e--------------------------------------------
B-----------------------------------10-10---9
G--7-9-10----------9-8---9-------------------
D--------------------------------------------
A--------------------------------------------
E--------------------------------------------

e--------------------------12-10----------------------
B--10---10---10---10-12-13-------13-12----------------
G---9----9----9--------------------------12---12---12-
D---7----7----7--------------------------12---12---12-
A----------------------------------------10---10---10-
E-----------------------------------------------------

e-----------10-------------------------------------------------
B-----10-12----13-12-10------------------------10-13-12-10-----
G--12---------------------10---10---10---10-12-------------12-9
D-------------------------10---10---10-------------------------
A--------------------------8----8----8-------------------------
E--------------------------------------------------------------

e-----------------
B-----------------
G--9--------------
D------12---10---9
A-----------------
E-----------------
Login or Register to remove this ad.

5 comments on Jogging Theme

nigga stole my bi ke ;D

nigga stole my bi
ke ;D

Thats the funniest shit ive

Thats the funniest shit ive heard since the third grade!

Awesome

Sweet Tab

Hammer On's

4

Try this instead of the power chords. Or if you have a second person to play with :)

e---------------------------------
B-10h12h13--10h12h13--10h12h13---- Instead of the A

e----------------------------
B-8h10h12--8h10h12--8h10h12-- Instead of the G

e------------------------
B-6h8h10--6h8h10--6h8h10- Instead of the F

Mod Edit

Mod Edit:

Changed

e---------------------------------------------
B------------------------------------10-10---9
G--7-9-10----------10-7---9-------------------
D---------------------------------------------
A---------------------------------------------
E---------------------------------------------

To

e--------------------------------------------
B-----------------------------------10-10---9
G--7-9-10----------9-8---9-------------------
D--------------------------------------------
A--------------------------------------------
E--------------------------------------------

Also the bold notes here are not in the original song, but I kept them in the tab above

e--------------------------12-10----------------------
B--10---10---10---10-12-13-------13-12----------------
G---9----9----9--------------------------12---12---12-
D---7----7----7--------------------------12---12---12-
A----------------------------------------10---10---10-
E-----------------------------------------------------

e-----------10-------------------------------------------------
B-----10-12----13-12-10------------------------10-13-12-10-----
G--12---------------------10---10---10---10-12-------------12-9
D-------------------------10---10---10-------------------------
A--------------------------8----8----8-------------------------
E--------------------------------------------------------------