Ads

Brinstar (Metroid) Guitar Tab

Submitted: Nov 11, 2007 by Ice Climbers (Last updated: Nov 11, 2007)

0
Download | Listen
Game: Metroid
Composer(s): Hirokazu Tanaka
Style: 2 or more instruments, Transcription
Series: Metroid

AutoScroll: Slow | Medium | Fast
                                Game: Metroid 
                         Stage: Brinstar- Lead Guitar
                           Tabbed by: Mario&Luigi
                          
                                   NOTE!!!
         Sometimes you must ignore the timing! Just listen to the song!

CONTACT:

www.myspace.com/iceclimbersrocks

[email protected]

e---------------------------------------|--------------------------------------
B---------------------------------------|---------11----10h11p10-----------11--
G---------------------3--3---3-3--3---3-|----12-----------------10-12----------
D-5--5---5-5--5---5--------3--------3---|--------------------------------------
A------5--------5-----------------------|-x2-----------------------------------
E---------------------------------------|--------------------------------------
                                                                              

e------------------------------------------------------------------------------
B-10h11-p10----------11----10h11p10---------------13-------11--10h11p10--------
G-----------10-12-------------------10-12---12---------12---------------10-----
D------------------------------------------------------------------------------
A------------------------------------------------------------------------------
E------------------------------------------------------------------------------
                                                                              

e------------------------------------------------------------------------------
B-13-----11--10h11p10-----13--------11--10h11p10-------------------------------
G----12---------------10--------12---------------10-12-------------------------
D------------------------------------------------------------------------------
A--------------------------------------------------------10--------------------
E------------------------------------------------------------------------------
                                                                              

e------------------------------------------------------------------------------
B---------------------------------------------------------13-15---13--12--13---
G-14--14-12-14-15-----------12-14--14-12-14-15---------15----------------------
D------------------15----15---------------------15--15-------------------------
A---------------------15-------------------------------------------------------
E------------------------------------------------------------------------------
                                                                              

e------------------------13-14----14-------------------------------------------
B-16-15-13-15---------15-------------------------------------------------------
G--------------15--15----------------------------------------------------------
D------------------------------------------------------------------------------
A------------------------------------------------------------------------------
E------------------------------------------------------------------------------

                                Game: Metroid 
                         Stage: Brinstar- Harmony Guitar
                           Tabbed by: Mario&Luigi
                          
                                   NOTE!!!
         Sometimes you must ignore the timing! Just listen to the song!

CONTACT:

www.myspace.com/iceclimbersrocks

[email protected]

e------------------------------------------------------------------------------
B------------------------------------------------------------------------------
G-------------------------------10-------------10-------------10---------------
D-9---10---9---10----9--12--10------9--12--10------9--12--10-------------------
A------------------------------------------------------------------------------
E------------------------------------------------------------------------------
                                                                              

e------------------------------------------------------------------------------
B------------------------------------------------------------------------------
G------------------------------------------------------------------------------
D-9---10---12---14-----------15--12--14-----------15--12--14-----------15--12--
A-------------------15----15-------------15----15-------------15----15---------
E----------------------15-------------------15-------------------15------------
                                                                              

e------------------------------------------------------------------------------
B------------------------------------------------------------------------------
G-----------10-------------------10--------------------------------------------
D-14---14------10-----10-8-10-12----10---13-----------8---------8------7-9-----
A-----------------12------------------------12----------------8------8---------
E----------------------------------------------13---8---8--10------8-----------
                                                                              

e------------------------------------------------------------------------------
B------------------------------------------------------------------------------
G--------------------------------------------15--------------------------------
D-7------12--13-15-------------------------------12-12-------------------------
A----10----------------------------13--------------------14--------------------
E------------------16--15-13-11-13----15--13------------------15---------------
Login or Register to remove this ad.