Ads

Brinstar (Metroid) Guitar Tab

Submitted: Jul 23, 2008 by Solid Snake

0
Download | Listen
Game: Metroid
Composer(s): Hirokazu Tanaka
Style: 2 or more instruments, Transcription
Series: Metroid

AutoScroll: Slow | Medium | Fast
Metroid - Brinstar

[Guitar 1: Main Melody]
[Guitar 2: Optional Chords]

Guitar 1

E|-3----6--5h6p5-----|\                       E|-3-----------------|
B|----3----------6---| \                      B|-------------------|
G|-------------------| |                      G|-------------------|
D|-------------------| |                      D|-------------------|
A|-------------------| |                      A|-------------------|
E|-------------------| |                      E|-------------------|
                       |
Guitar 2                -- Play 3 times,
                       |   then     
E|-------------------| |                      E|-------------------|
B|-------------------| |                      B|-------------------|
G|-------------------| |                      G|-------------------|
D|-5----8------------| |                      D|-5-----------------|
A|-5----8------------| /                      A|-5-----------------|
E|-3----6------------|/                       E|-3-----------------|
                 
Guitar 1

E|-8------6--5h6p5---|\                       E|-3-----------------|
B|----8-8----------6-| \                      B|-------------------|
G|-------------------| |                      G|-------------------|
D|-------------------| |                      D|-------------------|
A|-------------------| |                      A|-------------------|
E|-------------------| |                      E|-------------------|
                       |
Guitar 2                -- Play 3 times,
                       |   then 
E|-------------------| |                      E|-------------------|
B|-------------------| |                      B|-------------------|
G|-5-----------------| |                      G|-------------------|
D|-5--5-5/8----------| |                      D|-5-----------------|
A|-3--5-5/8----------| /                      A|-5-----------------|
E|----3-3/6----------|/                       E|-3-----------------|

Guitar 1

E|-5--5-3-5-6-----------5--5-3-5-6-------6-8---|
B|-------------6--8p6h8-------------6--6-------|
G|---------------------------------------------|
D|---------------------------------------------|
A|---------------------------------------------|
E|---------------------------------------------|
                                              
Guitar 2                                     
                                             
E|---------------------------------------------|
B|---------------------------------------------|
G|---------------------------------------------|
D|-7--------8--3--------7--------8--3----------|
A|-7--------8--3--------7--------8--3----------|
E|-5--------6--1--------5--------6--1----------|

Guitar 1

E|-10--8--7--8--11-10-8-10---------10-13-14----|
B|--------------------------10--10-------------|
G|---------------------------------------------|
D|---------------------------------------------|
A|---------------------------------------------|
E|---------------------------------------------|
                                              
Guitar 2                                     
                                              
E|---------------------------------------------|
B|---------------------------------------------|
G|-7--5--4--5-----------7----------------11----|
D|-7--5--4--5-----------7---7------------11----|
A|-5--3--2--3-----------5---7-------------9----|
E|--------------------------5------------------|

The chords, "Guitar 2", are just what I like to play as a rhythm part,
with the lead guitar playing the "Guitar 1" sections. This is as accurate
as I can get it, so enjoy!
Login or Register to remove this ad.

2 comments on Brinstar

That last bit, with 10-8-7-8

That last bit, with 10-8-7-8 on Guitar 1 and the corresponding chords on Guitar 2, the chords below 10-8-7-8 should be directly in line, if that matters.

You're right...

They should be, but I think it's clear enough. I was counting the dashes rather than the characters when I was tabbing it...