Ads

ElecMan's Stage (Mega Man) Bass Tab

Submitted: Oct 17, 2007 by eddhead (Last updated: May 07, 2008)

5
Average: 5 (2 votes)
Download | Listen
Game: Mega Man
Composer(s): Yoshihiro Sakaguchi, Manami Matsumae
Style: Transcription
Series: Mega Man

AutoScroll: Slow | Medium | Fast
ElecMan Stage Bass Tab

MegaMan -- NES -- 1987

Composed by: Yoshihiro Sakaguchi

Tabbed by: "Fast" Eddie Schofield

I tabbed these so that each "measure" of bass tabbing
should go with each "measure" of guitar tabbing (hence
the numbering of each measure). The bass isn't perfectly
timed, but it at least gives you an idea (listen to the MIDI).


1
e-----------------------------
B-----------------------------
G-----------------------------
D---------4--4--4--4--4--4--4-
A--------2--2--2--2--2--2--2--
E-----------------------------


2
e-----------
B-----------
G-----------    
D--------4--        
A--2-0------
E-----------


3
e--------------------
B--------------------
G--------------------
D----4--4--4--4--4--4
A--0--0--0--0--0--0--
E--------------------


4
e-------------
B-------------
G-------------     
D--------2----        
A--0----------
E----4--------


5
e-----------------------------------
B-----------------------------------
G-----------------------------------
D----2--2--2--2--2--2-----2--2--2--2
A-----------------------------------
E--4--4--4--4--4--4--4-3---3--3--3--


6
e-----------------
B-----------------
G-----------------
D----2--2--2--2---
A-----------------
E--2--2--2--2-----


7
e-----------------------------
B-----------------------------
G-----------------------------
D---------4--4--4--4--4--4--4-
A--------2--2--2--2--2--2--2--
E-----------------------------


8
e-----------
B-----------
G-----------    
D--------4--        
A--2-0------
E-----------


9
e--------------------
B--------------------
G--------------------
D----4--4--4--4--4--4
A--0--0--0--0--0--0--
E--------------------


10
e-------------
B-------------
G-------------     
D--------2----        
A--0----------
E----4--------


11
e-----------------------------------
B-----------------------------------
G-----------------------------------
D----2--2--2--2--2--2-----2--2--2--2
A-----------------------------------
E--4--4--4--4--4--4--4-3---3--3--3--


12
e-----------------
B-----------------
G-----------------
D----2--2--2--2---
A-----------------
E--2--2--2--2-----


(If I were to transcribe this part, it goes too high
for any 4-string bass... so some of this is arranged)


13
e--------------------------------------------------------
B--------------------------------------------------------
G--------------------------------------------------------
D--------------------------15--13-------12-13-12-10-8----
A--2-s---l---i---d---e-15--------------------------------
E--------------------------------------------------------



14
e----------------------------------
B----------------------------------
G----------------------------------
D--10-------------15--13-----------
A---------12--15-------------------
E-----13---------------------------




15
e-----------------------------
B-----------------------------
G------------------10--14--12-
D--0-s-l-i-d-e-10-------------
A-----------------------------
E-----------------------------


16
e-----------------------------
B-----------------------------
G--(12)-----------------------
D--------13--10--11--13--15---
A-----------------------------
E-----------------------------


17
e---------------------           
B---------------------
G--14141414-1414-1414-              
D---------------------                       
A---------------------
E---------------------


(Repeat from beginning)
Login or Register to remove this ad.