Ads

Dr. Wily's Stage (Mega Man 6) Guitar Tab

Submitted: Oct 03, 2007 by Kabukibear (Last updated: Sep 20, 2009)

5
Average: 5 (3 votes)
Download | Listen
Game: Mega Man 6
Composer(s): Yuko Kadota
Style: Arrangement, Fingerstyle, Natural harmonics
Series: Mega Man

AutoScroll: Slow | Medium | Fast
Dr. Wily's Stage                                 
~Mega Man VI~
Composed By: Yuko Kadota
Arranged By: Justin Lincoln

bpm=160

     E  E  E  E  E  E  E  E     E  E  E  E  E  E  E  E   
E||--------------------------|--------------------0-----|
B||--1--------------0--------|--------------1-----------|
G||--------2--------------2--|--------2-----------------|
D||-----2-----2--------------|-----2--------------------|
A||--0-----------0-----0-----|--0--------0-----0-----0--|
E||--------------------------|--------------------------|


  E  E  E  E  E  E  E  E     Q    E  E  E  E  E  E     E  E  E  E  E  E  E  E   
--------------------------|----------------------0--|--1-----------------1-----|
--3--------0--------------|-------------------3-----|-----------1--------------|
--------0-----------0-----|--2----2--0--------------|--------------------------|
-----0-----------0-----0--|--0----0--0-----0--------|--------3--------3-----3--|
--------------------------|-------------------------|-----3--------3-----------|
--3-----------3-----------|--3----------3-----------|--1-----------------------|


                                                                 ^    ^  v  ^   
  E  E  E  E  E  E  E  E     E  E  E  E  E  E  E  E     E  E  E  Q    E  E  E   
--0-----------------------|--------------------------|-----------0----0--0--0--|
--------3-----1-----0-----|--0--1--0-----------------|-------------------------|
-----1-----1-----1-----1--|--2--------2-----1-----2--|-----------1----1--1--1--|
--------------------------|--2-----------------------|--------2--2----2--2--2--|
--------------------------|--0-----------0-----0-----|-----2-----2----2--2--2--|
--0-----------0-----------|--------------------------|--0--------0----0--0--0--|


  E  E  E  E  E  E  E  E     E  E  E  E  E  E  E  E   
--------------------------|--------------------0-----|
--1--------------0--------|--------------1-----------|
--------2--------------2--|--------2-----------------|
-----2-----2--------------|-----2--------------------|
--0-----------0-----0-----|--0--------0-----0-----0--|
--------------------------|--------------------------|


  E  E  E  E  E  E  E  E     Q    E  E  E  E  E  E     E  E  E  E  E  E  E  E   
--------------------------|----------------------0--|--1-----------------1-----|
--3--------0--------------|-------------------3-----|-----------1--------------|
--------0-----------0-----|--2----2--0--------------|--------------------------|
-----0-----------0-----0--|--0----0--0-----0--------|--------3--------3-----3--|
--------------------------|-------------------------|-----3--------3-----------|
--3-----------3-----------|--3----------3-----------|--1-----------------------|


  E  E  E  E  E  E  E  E     E  E  E  E  E  E  E  E   
--0-----------------------|--------------------------|
--------3-----1-----0-----|--0--1--0-----------------|
-----1-----1-----1-----1--|--2--------2-----1-----2--|
--------------------------|--2-----------------------|
--------------------------|--0-----------0-----0-----|
--0-----------0-----------|--------------------------|


  E  E  E  S S E  E  E  E     Q    E  E  E  E  E  E     Q    E  E  E  E  E  E   
---------------------1--0--|-------------------------|----------0--------1-----|
-----------0h1p0-----------|----------0--------1-----|--3----3-----------------|
--------2---------2--------|--2----2-----------------|----------0--------2-----|
-----2---------------------|----------0-----0--2-----|--3----3--------0--------|
--0------------------------|--3----3-----------------|-------------------------|
---------------------------|--1----------1--------1--|--3----------3--------3--|


  E  E  E  E  E  E  E  E     E  E  E  E  E  E  E  E     Q    E  E  E  E  E  E   
--3-----1-----0--------1--|-----1--0-----------------|-------------------------|
-----------------3--------|--------------3--1--------|----------0--------1-----|
-----0-----0--------0-----|-----------------------0--|--2----2-----------------|
--------------------------|--------------------------|----------0-----0--2-----|
--3-----------3-----------|--3--------3--------3-----|--3----3-----------------|
--------------------------|--------------------------|--1----------1--------1--|


  Q    E  E  E  E  E  E     E  E  E  E  E  E  E  E     E  E  E  E  E  E  E  E   
----------0--------1-----|--3--------0--------3-----|--4--------5--------7-----|
--3----3-----------------|--------1--------1--------|--------5--------5-----0--|
----------0--------2-----|-----0--------0--------0--|-----4--------4-----------|
--3----3--------0--------|--------------------------|--------------------------|
-------------------------|--3-----------------------|--------------------------|
--3----------3--------3--|--------------------------|--0-----------------------|


  E  E  E  E  E  E  E  E     E  E  E  E  E  E  E  E   
--7--------5--------------|--2--------3--------5-----|
--------5-----------8-----|--------3--------3--------|
-----5-----------5-----5--|-----2--------2-----------|
--------------------------|--0--------------------0--|
--0-----------0-----------|--------------------------|
--------------------------|--------------------------|


  E  E  E  E  E  E  E  E     E  E  E  E  E  E  E  E   
--8-----7--5--------------|-----------------------5--|
-----------------8-----7--|--------7-h8-p7-----------|
-----5--------------5-----|-----7-----------7--------|
--------------------------|--0-----------------0-----|
--0-----------0-----------|--------------------------|
--------------------------|--------------------------|


  E  E  E  E  E  E  E  E     E  E  E  E  E  E  E  E   
--7--------5--------------|--2--------0--------------|
--------5-----------8-----|--------3-----------3-----|
-----5-----------5-----5--|-----2-----------2-----2--|
--------------------------|--0-----------0-----------|
--0-----------0-----------|--------------------------|
--------------------------|--------------------------|


                                        NH            ^                  
  E  E  E  E  E  E  E  E     H          H             W                  
--0-----------------------|--0----------5---------||--5----------------||
--------------0--------0--|-----------------------||--5----------------||
-----------1--------1-----|----------------------*||--6----------------||
--------2--------2--------|----------------------*||-------------------||
-----2--------------------|-----------------------||--0----------------||
--0-----------------------|-----------------------||-------------------||




Duration Legend
---------------
W - whole
H - half
Q - quarter
E - 8th
S - 16th
T - 32nd
X - 64th
. - note dotted
|-n-|  - n-tuplets


Tablature Legend
----------------
NH - natural harmonic
h - hammer on
p - pull off
^ - brush up
v - brush down
Login or Register to remove this ad.

1 comment on Dr. Wily's Stage

-

5

mad fun to play. thx for yet another great tab.