Ads

Protoman's Whistle (Mega Man 3) Guitar Tab

Submitted: Apr 12, 2007 by archard (Last updated: Sep 24, 2011)

4
Average: 4 (6 votes)
Download | Listen
Game: Mega Man 3
Composer(s): Yasuaki Fujita
Style: Transcription
Series: Mega Man

AutoScroll: Slow | Medium | Fast
Protoman's Whistle
Megaman III
Composer: Bunbun
Tabbed by Alex Brenzinger [[email protected]]
April 12 2007

e|------18--20----18--22--------18--21--20--18----------------------------
B|--20----------------------20------------------18--20--------------------
G|------------------------------------------------------------------------
D|------------------------------------------------------------------------
A|------------------------------------------------------------------------
E|------------------------------------------------------------------------
Login or Register to remove this ad.

10 comments on Protoman's Whistle

Awesome, it sounds perfect.

Awesome, it sounds perfect.

lol, my guitar has only 21

lol, my guitar has only 21 frets.

Here's a better version. It

2

Here's a better version. It works for 21 fret guitars.

E-3-6-8-6-10-3-6-9-8-6
B---------------------6-8

It messed up the spacing the

It messed up the spacing the first time. Here it is.
E-3-6-8-6-10-3-6-9-8-6
B-------------------------------6-8

Hm, I think your version is

Hm, I think your version is very uncomfortable to play.
Some notes should be moved to the previous string.
The 6-8 at the end would be better a 10-12 on the G-string I guess.

E-------8------10--------9-8---------
B--8-11------11-----8-11-----11------
G-------------------------------10-12

Both work well.

Both work well.

I think going down to the G

I think going down to the G string would be a little much.

|E-------8------10--------9-8-----------------|
|B--8-11------11-----8-11-----11---6-8---|

Let's get crazy, let's get

5

Let's get crazy, let's get nuts:

|D--------------------------12-----------------------------------------------|
|A--------13--15----13-----------------13--16--15--13-----------------|
|E--15--------------------------15----------------------------13--15------|

sounds great one a 24 fret guitar

sounds great on a 24 fret guitar, I play it every time I begin to play

Try This

E--------8-------10----------9--8-----------------
B--8-11------11-----8-11--------11------8----
G-----------------------------------------10--------