Ads

Stage Selected (Mega Man 2) Guitar Tab

Submitted: Feb 24, 2007 by (Last updated: Nov 27, 2009)

4.875
Average: 4.9 (8 votes)
Download | Listen
Game: Mega Man 2
Composer(s): Manami Ietel, Manami Matsumae, Ogeretsu Kun
Style: Transcription
Series: Mega Man

AutoScroll: Slow | Medium | Fast
Stage Selected
Megaman 2
Composers: Ogretsu Kun, Manami Ietel, and Yoshiro Sakaguchi
Tabbed by Alex Brenzinger [ [email protected]]
February 24th 2007

e|-----------------------------------------2-2-2---3-1---1-2-3--
B|-1-1-1---1---1---3-3-3---3-1-3---4-4-4---------------4--------
G|-----------3--------------------------------------------------
D|--------------------------------------------------------------
A|--------------------------------------------------------------
E|--------------------------------------------------------------
Login or Register to remove this ad.

5 comments on Stage Selected

AWSOMEE!!

AWSOMEE!!

you have to play real fast

you have to play real fast to sound right, which i cant do lol, its right though

Alternate Ending

Try

--1-2-3--3p4p3
4------------------

here

For the last 3 notes you could just slide your finger up the fret board. It's alot better

444 222

the 444 and 222 should be 44 and 22, it sounds more like it

EDIT: sorry it isnt true!