Ads

Opening (Mega Man 2) Bass Tab

Submitted: Apr 12, 2008 by goldsac (Last updated: May 07, 2008)

0
Download | Listen
Game: Mega Man 2
Composer(s): Manami Ietel, Manami Matsumae, Ogeretsu Kun
Style: Transcription
Series: Mega Man

AutoScroll: Slow | Medium | Fast
Title:     Opening
Game:      Mega Man 2
Composer:  Manami Matsumae, Ogeretsu Kun, Yoshiro Sakaguchi
Year:      1989
Tabber:    goldsac
Notes:

4 strings; Standard tuning (EADG)

4/4 Time
    
_______________________________________________________________________________


Mellow, then Maiden   bpm=112


Section A

     Q.     E  Q    Q       Q.     E  Q    Q       Q.     E  Q    Q     
G||----------------------|----------------------|----------------------|
D||----------------------|----------------------|----------------------|
A||--9------9--9---------|--9------9--9---------|--9------9--9---------|
E||----------------------|----------------------|----------------------|


  Q.     E  Q    Q       H        H           H        H           H        H         
----------------------|--------------------|--------------------|--------------------|
----------------------|--------------------|--------------------|--------------------|
--9------9--9---------|--9--------8--------|--6-----------------|-----------6--------|
----------------------|--------------------|-----------9--------|--8-----------------|


  Q.     E  Q    Q       H.           Q       W                   H.           Q     
----------------------|--------------------|-------------------|--------------------|
----------------------|--------------------|-------------------|--------------------|
----------------------|--------------------|-------------------|---------------5----|
--9------9--9---------|--7------------8----|--9----------------|--6-----------------|

 
                     bpm=130

  W                   E  E  E  E  E  E  E  E     E  E  E  E  E  E  E  E   
-------------------|--------------------------|--------------------------|
-------------------|-----------------------4--|-----------------------4--|
--6----------------|--5--5-----5--5-----5-----|--5--5-----5--5-----5-----|
-------------------|-----------------5--------|-----------------5--------|


                                                       bpm=148

  E  E  E  E  E  E  E  E     E  E  E  E  E  E  E  E     E  E  E  E  E  E  E  E   
--------------------------|--------------------------|--------------------------|
-----------------------6--|-----------------------6--|-----------------------7--|
--7--7-----7--7-----7-----|--7--7-----7--7-----7-----|--8--8-----8--8-----8-----|
-----------------7--------|-----------------7--------|-----------------8--------|


                                                Huge slide...
  E  E  E  E  E  E  E  E                                           
--------------------------|-------------------|-------------------|
-----------------------7--|-------------------|-------------------|
--8--8-----8--8-----8-----|-------------------|-------------------|
-----------------8--------|-------------------|-------------------|


Section Maiden (gallop)    bpm=180

   E   S  S  E   S  S  E   S  S  E   S  S     E   S  S  E   S  S  E   S  S  E   S  S  
------------------------------------------|------------------------------------------|
--10--10-10-10--10-10-10--10-10-10--10-10-|--10--10-10-10--10-10-10--10-10-10--10-10-|
------------------------------------------|------------------------------------------|
------------------------------------------|------------------------------------------|


   E   S  S  E   S  S  E   S  S  E   S  S     E   S  S  E   S  S  E   S  S  E   S  S  
------------------------------------------|------------------------------------------|
--10--10-10-10--10-10-10--10-10-10--10-10-|--10--10-10-10--10-10-10--10-10-10--10-10-|
------------------------------------------|------------------------------------------|
------------------------------------------|------------------------------------------|


   E   S  S  E   S  S  E   S  S  E   S  S     E   S  S  E   S  S  E   S  S  E   S  S  
------------------------------------------|------------------------------------------|
--10--10-10-10--10-10-10--10-10-10--10-10-|--10--10-10-10--10-10-10--10-10-10--10-10-|
------------------------------------------|------------------------------------------|
------------------------------------------|------------------------------------------|


   E   S  S  E   S  S  E   S  S  E   S  S     E   S  S  E   S  S  E   E   E   E   
------------------------------------------|--------------------------------------|
--10--10-10-10--10-10-10--10-10-10--10-10-|--10--10-10-10--10-10-10----------10--|
------------------------------------------|--------------------------10--12------|
------------------------------------------|--------------------------------------|


   E   S  S  E   S  S  E   S  S  E   S  S     E   S  S  E   S  S  E   S  S  E   S  S  
------------------------------------------|------------------------------------------|
--10--10-10-10--10-10-10--10-10-10--10-10-|--10--10-10-10--10-10-10--10-10-10--10-10-|
------------------------------------------|------------------------------------------|
------------------------------------------|------------------------------------------|


   E   S  S  E   S  S  E   S  S  E   S  S     E   S  S  E   S  S  E   S  S  E   S  S  
------------------------------------------|------------------------------------------|
--10--10-10-10--10-10-10--10-10-10--10-10-|--10--10-10-10--10-10-10--10-10-10--10-10-|
------------------------------------------|------------------------------------------|
------------------------------------------|------------------------------------------|


   E   S  S  E   S  S  E   S  S  E   S  S     E   S  S  E   S  S  E   S  S  E   S  S  
------------------------------------------|------------------------------------------|
--10--10-10-10--10-10-10--10-10-10--10-10-|--10--10-10-10--10-10-10--10-10-10--10-10-|
------------------------------------------|------------------------------------------|
------------------------------------------|------------------------------------------|


   E   S  S  E   S  S  E   S  S  E   S  S     E   S  S  E   S  S  E   E   E   E   
------------------------------------------|--------------------------------------|
--10--10-10-10--10-10-10--10-10-10--10-10-|--10--10-10-10--10-10-10----------10--|
------------------------------------------|--------------------------10--12------|
------------------------------------------|--------------------------------------|


  E  E  H.              H        E  E  Q       E  E  H.            
---------------------|----------------------|---------------------|
---------------------|----------------------|---------------------|
--7------------------|--------------7-------|--5------------------|
---------------------|----------------------|---------------------|


  H        E  E  Q       E  E  H.              H        E  E  Q     
----------------------|---------------------|----------------------|
----------------------|---------------------|----------------------|
--------------5-------|--3------------------|--------------3-------|
----------------------|---------------------|----------------------|


  E  E  H.                                   E   S  S  E   S  S  E   S  S  E   S  S  
---------------------|-------------------|------------------------------------------|
---------------------|-------------------|--10--10-10-10--10-10-10--10-10-10--10-10-|
--3------------------|-------------------|------------------------------------------|
---------------------|-------------------|------------------------------------------|


   E   S  S  E   S  S  E   S  S  E   S  S     E   S  S  E   S  S  E   S  S  E   S  S  
------------------------------------------|------------------------------------------|
--10--10-10-10--10-10-10--10-10-10--10-10-|--10--10-10-10--10-10-10--10-10-10--10-10-|
------------------------------------------|------------------------------------------|
------------------------------------------|------------------------------------------|


   E   S  S  E   S  S  E   S  S  E   S  S     E   S  S  E   S  S  E   S  S  E   S  S  
------------------------------------------|------------------------------------------|
--10--10-10-10--10-10-10--10-10-10--10-10-|--10--10-10-10--10-10-10--10-10-10--10-10-|
------------------------------------------|------------------------------------------|
------------------------------------------|------------------------------------------|


   E   S  S  E   S  S  E   S  S  E   S  S     E   E   E  E  E   E   E  E   
------------------------------------------|--------------9-------------9--|
--10--10-10-10--10-10-10--10-10-10--10-10-|--10--10--12--------10--12-----|
------------------------------------------|-------------------------------|
------------------------------------------|-------------------------------|


  E   E   E  E  E   E   E  E    
-------------9-------------9--||
-----10--12--------10--12-----||
------------------------------||
------------------------------||




Duration Legend
---------------
W - whole
H - half
Q - quarter
E - 8th
S - 16th
T - 32nd
X - 64th
. - note dotted
|-n-|  - n-tuplets
Login or Register to remove this ad.