Overworld (Legend of Zelda) Guitar Tab

Submitted: Sep 30, 2007 by Calebelijah (Last updated: Sep 20, 2009)

4.78182
Average: 4.8 (55 votes)
Download | Listen
Game: Legend of Zelda
Composer(s): Koji Kondo
Style: 2 or more instruments, Transcription
Series: Legend of Zelda

This song is also called Main Theme

Click here for a video example.

AutoScroll: Slow | Medium | Fast
Melody
      H        E.   S T  S  S T  S     S.S. S  Q.      S  S T  S  S T  S
E||--------------------------------|-------------------------------------|
B||--11------------11---11-11---11-|--11----9-11-------L-11---11-11---11-|
G||--------------------------------|-------------------------------------|
D||--------------------------------|-------------------------------------|
A||--------------------------------|-------------------------------------|
E||--------------------------------|-------------------------------------|

   S.S S T  Q.     T  S T  S T  S  S T
---------------------------------------|
--11---9---11--------11---11---11-11---|
---------------------------------------|
---------------------------------------|
---------------------------------------|
---------------------------------------|

   S.T  T T  T T  S.T  T T  T T  S.T  T T  T T  S.T  S.T
---------------------------------------------------------|
--11-----------------------------------------------------|
-------10---10---10---10---10---10---10---10---10---10---|
---------------------------------------------------------|
---------------------------------------------------------|
---------------------------------------------------------|

   E.  S  Q.     S  S  S  S  S  S     H        E   S.T  S. S  S.
----------------------------10-11-|--13-----------13---13-14-16-|
--11---------------11-11-13-------|-----------------------------|
---------10-----------------------|-----------------------------|
----------------------------------|-----------------------------|
----------------------------------|-----------------------------|
----------------------------------|-----------------------------|

   H        S.  S  S. S. S  S.    S.S  S. H         Q
--18--------L--18-18-18-16-14-|--16---14-13--------13----|
------------------------------|--------------------------|
------------------------------|--------------------------|
------------------------------|--------------------------|
------------------------------|--------------------------|
------------------------------|--------------------------|

   E   S  S  H         E   E      E   S  S  H         E   E
--11--11-13-14--------13------|------------13----------------|
--------------------------16--|--14--14-16-----------16--14--|
------------------------------|------------------------------|
------------------------------|------------------------------|
------------------------------|------------------------------|
------------------------------|------------------------------|

   E   S  S  H         Q
------------12--------15----|
--13--13-15-----------------|
----------------------------|
----------------------------|
----------------------------|
----------------------------|

   S.T  T T  T T  S.T  T T  T T  S.T  T T  T T  S.T  S.T
--13-----------------------------------------------------|
---------------------------------------------------------|
-------10---10---10---10---10---10---10---10---10---10---|
---------------------------------------------------------|
---------------------------------------------------------|
---------------------------------------------------------|

   E.  S  Q.     S  S  S  S  S  S     H        E   S.T  S. S  S.
----------------------------10-11-|--13-----------13---13-14-16-|
--11---------------11-11-13-------|-----------------------------|
---------10-----------------------|-----------------------------|
----------------------------------|-----------------------------|
----------------------------------|-----------------------------|
----------------------------------|-----------------------------|

   H.            Q        E  E   H         Q        H.            Q
--18------------21----|--20-----17--------------|----------------18----|
----------------------|-------------------18----|--19------------------|
----------------------|-------------------------|----------------------|
----------------------|-------------------------|----------------------|
----------------------|-------------------------|----------------------|
----------------------|-------------------------|----------------------|

   E  E   H         Q        H.            Q        E  E   H         Q
--17---------------------|----------------18----|--17---------------------|
---------18--------18----|--19------------------|---------18--------15----|
-------------------------|----------------------|-------------------------|
-------------------------|----------------------|-------------------------|
-------------------------|----------------------|-------------------------|
-------------------------|----------------------|-------------------------|

   H.            Q        E  E   H         Q        E   S  S  H         Q
----------------14----|--13---------------------|------------12--------15----|
--16------------------|---------14--------------|--13--13-15-----------------|
----------------------|-------------------15----|----------------------------|
----------------------|-------------------------|----------------------------|
----------------------|-------------------------|----------------------------|
----------------------|-------------------------|----------------------------|

   S.T  T T  T T  S.T  T T  T T  S.T  T T  T T  S.T  S.T
--13-----------------------------------------------------||
---------------------------------------------------------||
-------10---10---10---10---10---10---10---10---10---10---||
---------------------------------------------------------||
---------------------------------------------------------||
---------------------------------------------------------||

Duration Legend
---------------
W - whole
H - half
Q - quarter
E - 8th
S - 16th
T - 32nd
X - 64th
. - note dotted
|-n-|  - n-tuplets

Tablature Legend
----------------
L - tied note





Harmony
                    |--3--|                       |--3--|
     H        E  E  E  E  E     S. S. S Q.     E  E  E  E
E||--------------------------|-----------------------------|
B||--3-----------3--3--3--3--|--1-----1-1------1--1--1--1--|
G||--------------------------|-----------------------------|
D||--------------------------|-----------------------------|
A||--------------------------|-----------------------------|
E||--------------------------|-----------------------------|

                    |--3--|
  S. S. S Q.     E  E  E  E     E  T T T T S. T T T T T S. T T T T T S. T S. T
-----------------------------|-------------------------------------------------|
--2-----2-2------2--2--2--2--|--2----------------------------------------------|
-----------------------------|-----2---2---2----2---2---2----2---2---2----2----|
-----------------------------|-------------------------------------------------|
-----------------------------|-------------------------------------------------|
-----------------------------|-------------------------------------------------|

  E.  S S. S  S.E  S S S S  S S    E.   S  S  S  S  S  E   E  S.  S  S.
--------------------------------|---------------10-11-13--13-----------|
------------------------------8-|--9---11-11-13---------------9--11-13-|
--7-----7--7----7----7-7-8-10---|--------------------------------------|
-------------10-----------------|--------------------------------------|
--------------------------------|--------------------------------------|
--------------------------------|--------------------------------------|

                                               |---3--|     |--3--|
  E.   S  S  S  S  S E  E  S.  S  S.   E  Q    E   E  E  E  E  E  E
--9------------------9--9--9--------|--9-----------------------------|
---------------11-12----------13-11-|-----9----9------9-----9--7--9--|
------11-11-13----------------------|-------------11-----------------|
------------------------------------|--------------------------------|
------------------------------------|--------------------------------|
------------------------------------|--------------------------------|

     |-3-|    |-3-|                   |-3-|    |-3-|
  E  S S Q    S S Q    E  E  E     E  S S Q    S S Q    E  E  E
------------------6----L--------|------------------4----L--------|
--7--7-6-7----7-9---------9--7--|--6--6-4-6----6-7---------7--6--|
--------------------------------|--------------------------------|
--------------------------------|--------------------------------|
--------------------------------|--------------------------------|
--------------------------------|--------------------------------|

  Q    E.  S E.  S E  E     E  T T T T T S. T T T T T S. T T T T T S. T S.
-----------------5-6--8--|--5----------------------------------------------|
--5----5---6-8-----------|-------------------------------------------------|
-------------------------|-------------------------------------------------|
-------------------------|-------7---7---7----7---7---7----7---7---7----7--|
-------------------------|-------------------------------------------------|
-------------------------|-------------------------------------------------|

  E.  S S. S  S.E  S S S S  S S    E.   S  S  S  S  S  E   E  S.  S  S.
--------------------------------|---------------10-11-13--13-----------|
------------------------------8-|--9---11-11-13---------------9--11-13-|
--7-----7--7----7----7-7-8-10---|--------------------------------------|
-------------10-----------------|--------------------------------------|
--------------------------------|--------------------------------------|
--------------------------------|--------------------------------------|

  H.            Q        E  E  H         Q       H.           Q
--9------------12----|--11-----8--------------|--7------------9----|
---------------------|------------------10----|--------------------|
---------------------|------------------------|--------------------|
---------------------|------------------------|--------------------|
---------------------|------------------------|--------------------|
---------------------|------------------------|--------------------|

  E  E   H         Q       H        Q    Q       E  E   H         Q
--8---------------------|--7-------------9----|--8---------------------|
--------10--------10----|---------------------|--------10--------10----|
------------------------|---------------------|------------------------|
------------------------|---------------------|------------------------|
------------------------|---------------------|------------------------|
------------------------|---------------------|------------------------|

  H        Q    Q       E  E  H        Q       Q    E.  S E  S S E  E
----------------7----|--6-------------------|------------------5-6--8--|
--7------------------|--------6-------------|--5----5---6-8--8---------|
---------------------|-----------------6----|--------------------------|
---------------------|----------------------|--------------------------|
---------------------|----------------------|--------------------------|
---------------------|----------------------|--------------------------|

  E  T T T T T S. T T T T T S. T T T T T S. T S.
--5----------------------------------------------||
-------------------------------------------------||
-------------------------------------------------||
-------7---7---7----7---7---7----7---7---7----7--||
-------------------------------------------------||
-------------------------------------------------||

Duration Legend
---------------
W - whole
H - half
Q - quarter
E - 8th
S - 16th
T - 32nd
X - 64th
. - note dotted
|-n-|  - n-tuplets

Tablature Legend
----------------
L - tied note
Login or Register to remove this ad.

20 comments on Overworld

Word wrap, yo!

Word wrap, yo!

By that I assume you mean

By that I assume you mean the formatting problem with 'Guitar 2'. Problem fixed. Thanks for pointing that out.

Hey I need the printable

Hey I need the printable version of this song!

Download the zip file. it

Download the zip file. it has the raw text files in it.

everytime i do this it dose

everytime i do this it dose come out good

Does anyone have the guitar

Does anyone have the guitar pro file for this? Could you link me?

i just started the guitar

5

i just started the guitar and i was wondering, do u play guitar 1 and guitar 2 at the same time as the sheet says?

How many guitars can you

How many guitars can you hold?

what that means is that

what that means is that guitar 1 useualy means that its a lead guitar and guitar 2 is a different guitar useualy a rythem guitar so for this song u will need u and a friend to play since it recuires 2 guitars

Yeah, of course

Yeah, of course

Guys in order to print this

Guys in order to print this what do I have to do?

Thank you for this =] Now

5

Thank you for this =] Now when i play it it really does sound like the Zelda Overword theme tune =D Woot.

can i play both guitars?

5

can i play both guitars?

you have to have two people

you have to have two people playing if there's two guitars.

i just started. so what does

i just started.
so what does the texts mean as in whole , half , quarter , ect?

Woot this song rocks.

Woot this song rocks.

Best overworld tab ive seen

5

Best overworld tab ive seen man you rock

is this in standard tuning?

is this in standard tuning? anyway, great sound, sounds perfect.

Re: Overworld

Ummm, this may sound noobish, but how do I get the zip file for this?

It should be on the very top,

It should be on the very top, right above the link to the mid, to the right of the title information.