Ads

Palace (Legend of Zelda: Adventure of Link) Guitar Tab

Submitted: Mar 06, 2009 by Calebelijah

4.8
Average: 4.8 (5 votes)
Download | Listen
Game: Legend of Zelda: Adventure of Link
Composer(s): Akito Nakatsuka
Style: Transcription
Series: Legend of Zelda

AutoScroll: Slow | Medium | Fast
                                    Palace                                      


Melody
     E  Q    Q    Q.         Q.      Q.     Q         H        E   E   E   E   
E||----------------------|-----------------------||-----------------------10--|
B||--8--8----8----8------|--11------10------9----||---8--------L--10--11------|
G||----------------------|-----------------------||*--------------------------|
D||----------------------|-----------------------||*--------------------------|
A||----------------------|-----------------------||---------------------------|
E||----------------------|-----------------------||---------------------------|
 
 
   Q.      Q.      Q        Q.      Q.      Q        Q     E   Q     Q.      
--11--------------11----|--12--------------12----|--11----15--13----11------|
----------11------------|----------11------------|--------------------------|
------------------------|------------------------|--------------------------|
------------------------|------------------------|--------------------------|
------------------------|------------------------|--------------------------|
------------------------|------------------------|--------------------------|
 
 
   H        E   E   E   E      Q.      Q.      Q        Q.      Q.      Q     
-----------------------10--|--11--------------11----|--12--------------12----|
---------------10--11------|----------11------------|----------11------------|
--12--------L--------------|------------------------|------------------------|
---------------------------|------------------------|------------------------|
---------------------------|------------------------|------------------------|
---------------------------|------------------------|------------------------|
 
 
   Q     E   Q     Q.         E   Q     Q     E   Q       Q    H.            
--11----15--13----11------|--10--10----10----10--------|--------------------|
--------------------------|----------------------13----|--L-----------------|
--------------------------|----------------------------|--------------------|
--------------------------|----------------------------|--------------------|
--------------------------|----------------------------|--------------------|
--------------------------|----------------------------|--------------------|
 
 
   E   Q     Q     E   Q       Q    H.               E   Q     Q     E   Q     
--10--10----10----10--11----|--L-----------------|--10--10----10----10--------|
----------------------------|--------------------|----------------------13----|
----------------------------|--------------------|----------------------------|
----------------------------|--------------------|----------------------------|
----------------------------|--------------------|----------------------------|
----------------------------|--------------------|----------------------------|
 
 
  Q    H.               E   Q     Q     E   Q       Q.      Q.      Q     
--------------------|--10--10----10----10--13----|--L------11------10----|
--L-----------------|----------------------------|-----------------------|
--------------------|----------------------------|-----------------------|
--------------------|----------------------------|-----------------------|
--------------------|----------------------------|-----------------------|
--------------------|----------------------------|-----------------------|
 
 
   H        E   E   E   E      Q.      Q.      Q        Q.      Q.      Q     
-----------------------10--|--11--------------11----|--12--------------12----|
---------------10--11------|----------11------------|----------11------------|
--12--------L--------------|------------------------|------------------------|
---------------------------|------------------------|------------------------|
---------------------------|------------------------|------------------------|
---------------------------|------------------------|------------------------|
 
 
   Q     E   Q     Q.         H        E   E   E   E      Q.      Q.      Q     
--11----15--13----11------|-----------------------10--|--11--------------11----|
--------------------------|---------------10--11------|----------11------------|
--------------------------|--12--------L--------------|------------------------|
--------------------------|---------------------------|------------------------|
--------------------------|---------------------------|------------------------|
--------------------------|---------------------------|------------------------|
 
 
   Q.      Q.      Q        Q     E   Q     Q.      
--12--------------12----|--11----15--13----11------|
----------11------------|--------------------------|
------------------------|--------------------------|
------------------------|--------------------------|
------------------------|--------------------------|
------------------------|--------------------------|
 
 
   E   E   E   Q     E   Q        E   E   E   Q     E   Q     
------------------------------|------------------------------|
--13--10--11--13----11--10----|------------------------------|
------------------------------|--14--11--12--14----12--11----|
------------------------------|------------------------------|
------------------------------|------------------------------|
------------------------------|------------------------------|
 
 
   E   E   E   Q     E   Q        E   E   E   Q     E   Q     
--13--------------------------|------------------------------|
------13--15--16----15--13----|--13----------13----15--16----|
------------------------------|------13--15------------------|
------------------------------|------------------------------|
------------------------------|------------------------------|
------------------------------|------------------------------|
 
 
   E   E   E   Q     E   Q        E   E   E   Q     E   Q     
------------------------------|------------------------------|
--13----------13--------------|------------------------------|
------14--15--------15--14----|--14--11--12--14----12--11----|
------------------------------|------------------------------|
------------------------------|------------------------------|
------------------------------|------------------------------|
 
 
  E  Q    Q.     Q       E  Q    Q     Q    E      H        E   Q     E   
----------------------|---------------------8--|--10---------------------|
----------------------|----------7----10-------|---------------13----11--|
--7--7----8-----------|--7--7------------------|-------------------------|
----------------------|------------------------|-------------------------|
----------------------|------------------------|-------------------------|
----------------------|------------------------|-------------------------|
 
 
   |-----3-----|     |-----3-----|                               
   Q     Q     Q     Q     Q     Q        H        E   Q     E   
--------------------10----11----13----|--13-----------11----10--|
--10----11----13----------------------|-------------------------|
--------------------------------------|-------------------------|
--------------------------------------|-------------------------|
--------------------------------------|-------------------------|
--------------------------------------|-------------------------|
 
 
   |-----3-----|     |-----3-----|                               
   Q     Q     Q     Q     Q     Q        H        E   Q     E   
--11----10----------10----11----13----|--15---------------------|
--------------13----------------------|-------------------------|
--------------------------------------|---------------12----14--|
--------------------------------------|-------------------------|
--------------------------------------|-------------------------|
--------------------------------------|-------------------------|
 
 
   |-----3-----|     |-----3-----|                               
   Q     Q     Q     Q     Q     Q        H        E   Q     E   
--------------------12----13----15----|--13-----------11----10--|
--12----13----15----------------------|-------------------------|
--------------------------------------|-------------------------|
--------------------------------------|-------------------------|
--------------------------------------|-------------------------|
--------------------------------------|-------------------------|
 
 
   |-----3-----|     |-----3-----|                               
   Q     Q     Q     Q     Q     Q        H        E   Q     E   
--11----10----------10----11----13----|--10---------------------|
--------------13----------------------|---------------13----11--|
--------------------------------------|-------------------------|
--------------------------------------|-------------------------|
--------------------------------------|-------------------------|
--------------------------------------|-------------------------|
 
 
   |-----3-----|     |-----3-----|                               
   Q     Q     Q     Q     Q     Q        H        E   Q     E   
--------------------10----11----13----|--13-----------11----10--|
--10----11----13----------------------|-------------------------|
--------------------------------------|-------------------------|
--------------------------------------|-------------------------|
--------------------------------------|-------------------------|
--------------------------------------|-------------------------|
 
 
   |-----3-----|     |-----3-----|                               
   Q     Q     Q     Q     Q     Q        H        E   Q     E   
--11----10----------10----11----13----|--15---------------------|
--------------13----------------------|-------------------------|
--------------------------------------|---------------12----14--|
--------------------------------------|-------------------------|
--------------------------------------|-------------------------|
--------------------------------------|-------------------------|
 
 
   |-----3-----|     |-----3-----|                               
   Q     Q     Q     Q     Q     Q        H        E   Q     E   
--------------------12----13----15----|--13-----------11----10--|
--12----13----15----------------------|-------------------------|
--------------------------------------|-------------------------|
--------------------------------------|-------------------------|
--------------------------------------|-------------------------|
--------------------------------------|-------------------------|
 
 
   |-----3-----|     |-----3-----|                                  
   Q     Q     Q     Q     Q     Q        E   Q     Q     E   Q     
--11----10----------10----11----13----|--10--10----10----10--------|
--------------13----------------------|----------------------13----|
--------------------------------------|----------------------------|
--------------------------------------|----------------------------|
--------------------------------------|----------------------------|
--------------------------------------|----------------------------|
 
 
  Q    H.               E   Q     Q     E   Q       Q    H.            
--------------------|--10--10----10----10--11----|--L-----------------|
--L-----------------|----------------------------|--------------------|
--------------------|----------------------------|--------------------|
--------------------|----------------------------|--------------------|
--------------------|----------------------------|--------------------|
--------------------|----------------------------|--------------------|
 
 
   E   Q     Q     E   Q       Q    H.               E   Q     Q     E   Q     
--10--10----10----10--------|--------------------|--10--10----10----10--13----|
----------------------13----|--L-----------------|----------------------------|
----------------------------|--------------------|----------------------------|
----------------------------|--------------------|----------------------------|
----------------------------|--------------------|----------------------------|
----------------------------|--------------------|----------------------------|
 
 
  Q.      Q.      Q        
--L------11------10------||
-------------------------||
-----------------------*-||
-----------------------*-||
-------------------------||
-------------------------||
 
 
 
 
Duration Legend
---------------
W - whole
H - half
Q - quarter
E - 8th
S - 16th
T - 32nd
X - 64th
. - note dotted
|-n-|  - n-tuplets
 
 
Tablature Legend
----------------
L - tied note

Login or Register to remove this ad.

2 comments on Palace

You're amzing

5

Dude, you're just so damn amazing, thanks for the tab man^^:)http://www.youtube.com/watch?v=RFHXC1FxiQI

I was in the process of

4

I was in the process of tabbing it when I found yours. It's pretty good. A little off near the end... It's like 90% on, but some missing parts. I'm going to post a full tab including the fast sweep part as well. That was hard as balls to figure out! Haha.

My band is going to hate me for not working on our s**t! Haha.