Ads

Grape Garden (Kirby's Adventure) Guitar Tab

Submitted: Sep 30, 2007 by archard (Last updated: Sep 30, 2007)

5
Average: 5 (2 votes)
Download | Listen
Game: Kirby's Adventure
Composer(s): Hirokazu Ando
Style: Transcription
Series: Kirby

AutoScroll: Slow | Medium | Fast
Grape Garden
Kirby's Adventure

7/23/06

e--1-2-4---------0---------0-9-7-5-4--
B--------4---2-4---0---2-4-----------4
G-------------------------------------
D-------------------------------------
A-------------------------------------
E-------------------------------------

e--1-2-4---------0---------0----------
B--------4---2-4---0---2-4---4-----2--
G--------------------------------1----
D-------------------------------------
A-------------------------------------
E-------------------------------------
Login or Register to remove this ad.

3 comments on Grape Garden

awesome total blast from my

awesome total blast from my childhood thanks!

here's the ending 1st

here's the ending

1st part
e--13-13--------------------13-13--
B-------14-14-----14-14------------
G------------15-15-----15-15-------
D----------------------------------
A----------------------------------
E----------------------------------

2nd part
e-11-11---------------------11-11--
B------13-13-----13-13-------------
G-----------13-13------13-13-------
D----------------------------------
A----------------------------------
E----------------------------------

3rd part
e-9-9--------------------9-9-------
B----11-11-----11-11---------------
G---------11-11-----11-11----------
D----------------------------------
A----------------------------------
E----------------------------------

4th part
e-8-8----------------7-------------
B----9-9-----9-9-------------------
G-------10-10---10-10--------------
D----------------------------------
A----------------------------------
E----------------------------------

Repeat

Can you post the intro?

5

Can you post the intro part as well? It just doesnt feel right playing it without it. Great tab by the way. Great memories came flooding back.