Ads

Title & Level Theme (Gyromite) Guitar Tab

Submitted: Apr 06, 2008 by Zelos (Last updated: Apr 06, 2008)

5
Average: 5 (1 vote)
Download | Listen
Game: Gyromite
Composer(s): Unknown
Style: 2 or more instruments, Transcription

Click here for a video example.

AutoScroll: Slow | Medium | Fast
Title & Level Theme       
~Gyromite~
Composed by: Unknown
Arranged by: Zelos
Difficulty: Medium (Nothing really special here)

BPM = 100 / 148                               


Guitar I


     H         S  S S  S S  S S  S     S  S  S  S E.   S  S  S S  S S  S S  S  
E||-----------------------------12-|--------12--------12-------------------12-|
B||-----------10-----------10------|---------------------10-----------10------|
G||--------------11----------------|--13-------13-----------11----------------|
D||-------------------12-----------|-----14----------------------12-----------|
A||--------------------------------|------------------------------------------|
E||--------------------------------|------------------------------------------|


   S  S  S S  S  S S T T  S E   T  T  S E   T  T     W                  
--------12------12-------------------------------|---------------------|
--12---------------------------------------------|---------------------|
-----13--------------9-9-11----11-11-13----13-13-|--14~----------------|
-------------14----------------------------------|---------------------|
-------------------------------------------------|---------------------|
-------------------------------------------------|---------------------|


                        ^ v ^ v ^ v ^ v  ^  ^  v  ^  v  ^  v  v  
  W      BPM = 148      S S S S S S S S  S  S  S  S  S  S  S  S  
-------------------||---8-8-8-8-8-8-8-8--8--8--8--8--8--8--8--8-|
-------------------||---8-8-8-8-8-8-8-8-10-10-10-10-10-10-10-10-|
-------------------||*------------------------------------------|
-------------------||*------------------------------------------|
-------------------||-------------------------------------------|
-------------------||-------------------------------------------|


  ^ v ^ v  ^  v  ^  v  ^  v  ^  v  ^  v  ^  v  
  S S S S  S  S  S  S  S  S  S  S  S  S  S  S  
--5-5-5-5--8--8--8--8-12-12-12-12-10-10-10-10-|
--6-6-6-6-10-10-10-10-12-12-12-12-10-10-10-10-|
----------------------------------------------|
----------------------------------------------|
----------------------------------------------|
----------------------------------------------|


  ^ v ^ v ^ v ^ v  ^  ^  v  ^  v  ^  v  v  
  S S S S S S S S  S  S  S  S  S  S  S  S  
--8-8-8-8-8-8-8-8--8--8--8--8--8--8--8--8-|
--8-8-8-8-8-8-8-8-10-10-10-10-10-10-10-10-|
------------------------------------------|
------------------------------------------|
------------------------------------------|
------------------------------------------|


  ^ v ^ v  ^  v  ^  v  ^  v  ^  v  ^  v  ^  v                      
  S S S S  S  S  S  S  S  S  S  S  S  S  S  S    W                 
--5-5-5-5--8--8--8--8-12-12-12-12-10-10-10-10-|-------------------|
--6-6-6-6-10-10-10-10-12-12-12-12-10-10-10-10-|-------------------|
----------------------------------------------|-------------------|
----------------------------------------------|-------------------|
----------------------------------------------|-------------------|
----------------------------------------------|-------------------|


  H        S S  S S S  S S S    W                   H        S S  S S S  S S S  
-----------------------------|-------------------|-----------------------------|
-----------------------------|-------------------|-----------------------------|
-------------------------7---|-------------------|-------------------------7---|
-----------7-9-10---9-10-----|-------------------|-----------7-9-10---9-10-----|
-----------------------------|-------------------|-----------------------------|
-----------------------------|-------------------|-----------------------------|


  W                   W                   W                   W                 
-------------------|-------------------|-------------------|-------------------|
-------------------|-------------------|-------------------|-------------------|
-------------------|-------------------|-------------------|-------------------|
-------------------|-------------------|-------------------|-------------------|
-------------------|-------------------|-------------------|-------------------|
-------------------|-------------------|-------------------|-------------------|


  E   S S  S  S  S E.   S E.   S  S     S H        Q    E  S  
----------15-15-17-----20-----15-15-|--18--------------------|
-----17-----------------------------|------------------------|
------------------------------------|------------------------|
------------------------------------|------------------------|
------------------------------------|------------------------|
------------------------------------|------------------------|


  E   S S  S  S  S E.   S E.   S S    W                 
-----17---17-17-20-----17-----15---|-------------------|
-----------------------------------|-------------------|
-----------------------------------|-------------------|
-----------------------------------|-------------------|
-----------------------------------|-------------------|
-----------------------------------|-------------------|


  E   S S  S  S  S E.   S E.   S  S     S H        Q    E  S  
----------15-15-17-----20-----15-15-|--18--------------------|
-----17-----------------------------|------------------------|
------------------------------------|------------------------|
------------------------------------|------------------------|
------------------------------------|------------------------|
------------------------------------|------------------------|


  E   S S  S  S  S E.   S E.   S S    W                 
-----17---17-17-20-----17-----15---|-------------------|
-----------------------------------|-------------------|
-----------------------------------|-------------------|
-----------------------------------|-------------------|
-----------------------------------|-------------------|
-----------------------------------|-------------------|


  E   S S  S  S  S E.   S E.   S  S     S H        Q    E  S  
----------15-15-17-----20-----15-15-|--18--------------------|
-----17-----------------------------|------------------------|
------------------------------------|------------------------|
------------------------------------|------------------------|
------------------------------------|------------------------|
------------------------------------|------------------------|


  E   S S  S  S  S E.   S E.   S S    W                 
-----17---17-17-20-----17-----15---|-------------------|
-----------------------------------|-------------------|
-----------------------------------|-------------------|
-----------------------------------|-------------------|
-----------------------------------|-------------------|
-----------------------------------|-------------------|


  E   S S  S  S  S E.   S E.   S  S     S H        Q    E  S  
----------15-15-17-----20-----15-15-|--18--------------------|
-----17-----------------------------|------------------------|
------------------------------------|------------------------|
------------------------------------|------------------------|
------------------------------------|------------------------|
------------------------------------|------------------------|


  E   S S  S  S  S E.   S E.   S S    W                 
-----17---17-17-20-----17-----15---|-------------------|
-----------------------------------|-------------------|
-----------------------------------|-------------------|
-----------------------------------|-------------------|
-----------------------------------|-------------------|
-----------------------------------|-------------------|


  E   E   S S  S  S E   S E.   S S     S  S S S  S S  S H        S  
---------15---17-17----20-----15---|--19-19-----15---20------------|
-----17----------------------------|-------------------------------|
-----------------------------------|-------------------------------|
-----------------------------------|-------------------------------|
-----------------------------------|-------------------------------|
-----------------------------------|-------------------------------|


  E   S E.   S  S  S S  S E.   S S     S  S S S  S S S S  S Q    E  S  
-----------------------17----------|--15-15-----12--------------------|
-----15-----15-15-18----------15---|---------------------13-----------|
-----------------------------------|----------------------------------|
-----------------------------------|----------------------------------|
-----------------------------------|----------------------------------|
-----------------------------------|----------------------------------|


  E   S  S  S S  S  S E   S E.   S S     S  S S S  S S  S H        S  
-----------15---17-17----20-----15---|--19-19-----15---20------------|
-----17-17---------------------------|-------------------------------|
-------------------------------------|-------------------------------|
-------------------------------------|-------------------------------|
-------------------------------------|-------------------------------|
-------------------------------------|-------------------------------|


  E   S E.   S  S  S S  S E.   S S     S  S S S  S S S S  S Q    E  S  
-----------------------17----------|--15-15-----12--------------------|
-----15-----15-15-18----------15---|---------------------13-----------|
-----------------------------------|----------------------------------|
-----------------------------------|----------------------------------|
-----------------------------------|----------------------------------|
-----------------------------------|----------------------------------|


  W                   W                   W                 
-------------------|-------------------|-------------------|
-------------------|-------------------|-------------------|
-------------------|-------------------|-------------------|
-------------------|-------------------|-------------------|
-------------------|-------------------|-------------------|
-------------------|-------------------|-------------------|


  H        S S  S S S  S S S    W                   H        S S  S S S  S S S  
-----------------------------|-------------------|-----------------------------|
-----------------------------|-------------------|-----------------------------|
-------------------------7---|-------------------|-------------------------7---|
-----------7-9-10---9-10-----|-------------------|-----------7-9-10---9-10-----|
-----------------------------|-------------------|-----------------------------|
-----------------------------|-------------------|-----------------------------|


  W                   W                   W                 
-------------------|-------------------|-------------------|
-------------------|-------------------|-------------------|
-------------------|-------------------|-------------------|
-------------------|-------------------|-------------------|
-------------------|-------------------|-------------------|
-------------------|-------------------|-------------------|


  W                     W                  
--------------------||-------------------||
--------------------||-------------------||
-------------------*||-------------------||
-------------------*||-------------------||
--------------------||-------------------||
--------------------||-------------------||




Duration Legend
---------------
W - whole
H - half
Q - quarter
E - 8th
S - 16th
T - 32nd
. - note dotted


Tablature Legend
----------------
L - tied note
^ - brush up
v - brush down








----------------------------------------------------------









Guitar II

Difficulty: Very easy (Well, you'll see why :) It's not really needed anyway...)

BPM = 148                               


     W                   W                   W                 
E||-------------------|-------------------|-------------------|
B||-------------------|-------------------|-------------------|
G||-------------------|-------------------|-------------------|
D||-------------------|-------------------|-------------------|
A||-------------------|-------------------|-------------------|
E||-------------------|-------------------|-------------------|


  W                   W                     W                 
-------------------|-------------------||--------------------|
-------------------|-------------------||--------------------|
-------------------|-------------------||*-------------------|
-------------------|-------------------||*-------------------|
-------------------|-------------------||--------------------|
-------------------|-------------------||--------------------|


  W                   W                   W                 
-------------------|-------------------|-------------------|
-------------------|-------------------|-------------------|
-------------------|-------------------|-------------------|
-------------------|-------------------|-------------------|
-------------------|-------------------|-------------------|
-------------------|-------------------|-------------------|


  E  S E.  S E.  S E.  S S    E  S E.  S H        S  
---------------------------|------------------------|
---------------------------|------------------------|
-----9-----9-----9-----9---|-----9-----9------------|
---------------------------|------------------------|
---------------------------|------------------------|
---------------------------|------------------------|


  E  S E.  S E.  S E.  S S    E  S E.  S H        S    W                 
---------------------------|------------------------|-------------------|
---------------------------|------------------------|-------------------|
-----9-----9-----9-----9---|-----9-----9------------|-------------------|
---------------------------|------------------------|-------------------|
---------------------------|------------------------|-------------------|
---------------------------|------------------------|-------------------|


  W                   W                   W                   W                 
-------------------|-------------------|-------------------|-------------------|
-------------------|-------------------|-------------------|-------------------|
-------------------|-------------------|-------------------|-------------------|
-------------------|-------------------|-------------------|-------------------|
-------------------|-------------------|-------------------|-------------------|
-------------------|-------------------|-------------------|-------------------|


  S S S E.  S E.  S E.  S S    W                   E  S E.  S E.  S E.  S S  
------6-----6-----6-----6---|-------------------|-----3-----3-----3-----3---|
----------------------------|-------------------|---------------------------|
----------------------------|-------------------|---------------------------|
----------------------------|-------------------|---------------------------|
----------------------------|-------------------|---------------------------|
----------------------------|-------------------|---------------------------|


  W                   S S S E.  S E.  S E.  S S    W                 
-------------------|------6-----6-----6-----6---|-------------------|
-------------------|----------------------------|-------------------|
-------------------|----------------------------|-------------------|
-------------------|----------------------------|-------------------|
-------------------|----------------------------|-------------------|
-------------------|----------------------------|-------------------|


  E  S E.  S E.  S E.  S S    W                   S S S E.  S E.  S E.  S S  
-----3-----3-----3-----3---|-------------------|------6-----6-----6-----6---|
---------------------------|-------------------|----------------------------|
---------------------------|-------------------|----------------------------|
---------------------------|-------------------|----------------------------|
---------------------------|-------------------|----------------------------|
---------------------------|-------------------|----------------------------|


  W                   E  S E.  S E.  S E.  S S    W                 
-------------------|-----3-----3-----3-----3---|-------------------|
-------------------|---------------------------|-------------------|
-------------------|---------------------------|-------------------|
-------------------|---------------------------|-------------------|
-------------------|---------------------------|-------------------|
-------------------|---------------------------|-------------------|


  S S S E.  S E.  S E.  S S    W                   E  S E.  S E.  S E.  S S  
------6-----6-----6-----6---|-------------------|-----3-----3-----3-----3---|
----------------------------|-------------------|---------------------------|
----------------------------|-------------------|---------------------------|
----------------------------|-------------------|---------------------------|
----------------------------|-------------------|---------------------------|
----------------------------|-------------------|---------------------------|


  W                   S S S S S S S E.  S E.  S S    W                 
-------------------|------------------------------|-------------------|
-------------------|--------------------1-----1---|-------------------|
-------------------|------------------------------|-------------------|
-------------------|------------------------------|-------------------|
-------------------|------------------------------|-------------------|
-------------------|------------------------------|-------------------|


  S S S S S S S S S S S E.  S S    W                 
------3-------3-------3-----3---|-------------------|
--------------------------------|-------------------|
--------------------------------|-------------------|
--------------------------------|-------------------|
--------------------------------|-------------------|
--------------------------------|-------------------|


  S S S S S S S E.  S E.  S S    W                 
------------------------------|-------------------|
--------------------1-----1---|-------------------|
------------------------------|-------------------|
------------------------------|-------------------|
------------------------------|-------------------|
------------------------------|-------------------|


  S S S S S S S S S S S E.  S S    W                   W                 
------3-------3-------3-----3---|-------------------|-------------------|
--------------------------------|-------------------|-------------------|
--------------------------------|-------------------|-------------------|
--------------------------------|-------------------|-------------------|
--------------------------------|-------------------|-------------------|
--------------------------------|-------------------|-------------------|


  E  S E.  S E.  S E.  S S    E  S E.  S H        S  
---------------------------|------------------------|
---------------------------|------------------------|
-----9-----9-----9-----9---|-----9-----9------------|
---------------------------|------------------------|
---------------------------|------------------------|
---------------------------|------------------------|


  E  S E.  S E.  S E.  S S    E  S E.  S H        S    W                 
---------------------------|------------------------|-------------------|
---------------------------|------------------------|-------------------|
-----9-----9-----9-----9---|-----9-----9------------|-------------------|
---------------------------|------------------------|-------------------|
---------------------------|------------------------|-------------------|
---------------------------|------------------------|-------------------|


  W                   W                   W                   
-------------------|-------------------|--------------------||
-------------------|-------------------|--------------------||
-------------------|-------------------|-------------------*||
-------------------|-------------------|-------------------*||
-------------------|-------------------|--------------------||
-------------------|-------------------|--------------------||


  W                  
-------------------||
-------------------||
-------------------||
-------------------||
-------------------||
-------------------||




Duration Legend
---------------
W - whole
H - half
Q - quarter
E - 8th
S - 16th
. - note dotted

Login or Register to remove this ad.