Ads

Chaos' Temple (Final Fantasy) Guitar Tab

Submitted: Oct 05, 2008 by JaktheStripper (Last updated: Oct 09, 2008)

3.666665
Average: 3.7 (3 votes)
Download | Listen
Game: Final Fantasy
Composer(s): Nobuo Uematsu
Style: Transcription
Series: Final Fantasy

AutoScroll: Slow | Medium | Fast
                                   CHAOS TEMPLE - FINAL FANTASY
				     Tabbed - JaktheStripper

Written by Nobuo Uematsu for Final Fantasy NES 1987
Tabbed by JaktheStripper October 2nd 2008

Transposed down an entire octave to maintain playability on acoustics.


Tuning: [E A D G B E] [Standard]

  Tempo: 150-ish
  4/4
  

E|------0--------7--5--3---2--0--3----------|
B|------------0------------------------5----|
G|------------------------------------------|
D|------------------------------------------|
A|------------------------------------------|
E|------------------------------------------|


|-----------------7--10--8---7--5--7-----(7)----|
|-(5)----5--------------------------------------|
|--------------4--------------------------------|
|-----------------------------------------------|
|-----------------------------------------------|
|-----------------------------------------------|


  
|-----------------------------------------------------|
|-8--10--12---------------------7--8------------------|
|-------------------12--11--9---------9----------7----|
|---------------12--------------------------9---------|
|-----------------------------------------------------|
|-----------------------------------------------------|


|-----------------7--5---------------------------------|
|-----------------------6-----8--10--8-----(8)----7----|
|-(7)---------9----------------------------------------|
|------9--10-------------------------------------------|
|------------------------------------------------------|
|------------------------------------------------------|


  
|-----------------7--5--3---2--0--3----------|
|-(7)----5------------------------------5----|
|--------------4-----------------------------|
|--------------------------------------------|
|--------------------------------------------|
|--------------------------------------------|


|-----------------7--10--8---7--5--7-----(7)----|
|-(5)----5--------------------------------------|
|--------------4--------------------------------|
|-----------------------------------------------|
|-----------------------------------------------|
|-----------------------------------------------|


|-----------------------------------------------------|
|-8--10--12---------------------7--8------------------|
|-------------------12--11--9---------9----------7----|
|---------------12--------------------------9---------|
|-----------------------------------------------------|
|-----------------------------------------------------|


  
|-----------------7--5---------------------------------|
|-----------------------6-----8--10--8-----(8)----7----|
|-(7)---------9----------------------------------------|
|------9--10-------------------------------------------|
|------------------------------------------------------|
|------------------------------------------------------|


|-----------------7--5--3---2--0--3----------|
|-(7)----5------------------------------5----|
|--------------4-----------------------------|
|--------------------------------------------|
|--------------------------------------------|
|--------------------------------------------|


|-----------------7--10--8---7--5--7-----(7)----|
|-(5)----5--------------------------------------|
|--------------4--------------------------------|
|-----------------------------------------------|
|-----------------------------------------------|
|-----------------------------------------------|


  
E|-------------|
B|-8--10-------|
G|-------------|
D|-------------|
A|-------------|
E|-------------|




Tablature Legend
----------------
 h   - hammer-on
 p   - pull-off
 b   - bend
 pb  - pre-bend
 r   - bend release (if no number after the r, then release immediately)
 /\  - slide into or out of (from/to "nowhere")
 s   - legato slide
 S   - shift slide
  - natural harmonic
[n]  - artificial harmonic
n(n) - tapped harmonic
 ~   - vibrato
 tr  - trill
 T   - tap
 TP  - trem. picking
 PM  - palm muting
\n/  - tremolo bar dip; n = amount to dip
 \n  - tremolo bar down
 n/  - tremolo bar up
/n\  - tremolo bar inverted dip
 =   - hold bend; also acts as connecting device for hammers/pulls
 <>  - volume swell (louder/softer)
 x   - on rhythm slash represents muted slash
 o   - on rhythm slash represents single note slash
Login or Register to remove this ad.

6 comments on Chaos' Temple

HURRAY! Thank you so much

HURRAY!

Thank you so much for transposing it, I absolutely love this song.

Thanks, it's perfect, and it

Thanks, it's perfect, and it sounds good an octave down :-D I rated it 5 stars

Tapped Harmonic?

Could anyone explain this to me? Just started playing about a week ago, loving the final fantasy music. some of it is easy for a beginner like me =D

Those numbers in parentheses

Those numbers in parentheses just mean "keep holding the note" I believe. They aren't tapped harmonics.

As long as I know...

The numbers in parentheses are optional notes. You play them if you want. The notes you must keep holding are shown, then followed by a L-letter. Something like this:

e|-1-2-3-4-5-------------L-|-6-7-8-9-10--------------L-|

I'm sure about the parentheses, not very sure about the L.

Thanks!

Thanks guys!