Forbidden Land (Final Fantasy III) Guitar Tab

Submitted: Sep 30, 2007 by archard

5
Average: 5 (3 votes)
Download | Listen
Game: Final Fantasy III
Composer(s): Nobuo Uematsu
Style: Transcription
Series: Final Fantasy

AutoScroll: Slow | Medium | Fast
Forbidden Land
Final Fantasy 3
Composed by Nobuo Uematsu

8/12/06

e----0-1-----3--1-0-1------------------0-1--
B--3------3------------3-----1-3-----3-----3
G--------------------------3-----3----------
D-------------------------------------------
A-------------------------------------------
E-------------------------------------------

e----0-1-----3--1-0-1----------------1-3-5-1
B--3------3------------3-----1-3------------
G--------------------------3-----3----------
D-------------------------------------------
A-------------------------------------------
E-------------------------------------------

e--0-1-3--5--6--5-3-0--5--3--1------------0-1-3--5--6--5-3-0--5--3-----3-5-3-0
B------------------------------3----------------------------------------------
G-----------------------------------------------------------------------------
D-----------------------------------------------------------------------------
A-----------------------------------------------------------------------------
E-----------------------------------------------------------------------------
Login or Register to remove this ad.

4 comments on Forbidden Land

i pick my ass

i pick my ass

Wouldn't that mean,

Wouldn't that mean, technically, you pick yourself?

Anyways, great tab.

5

Sounds right. Nice tab.

Nice

5

Pretty much right. The last line seems a incomplete to me. This is how I hear it:

E|--0-1-3--5--6--5-3-0--5--3--1------------0-1-3--5--6--5-3-0--5--3-----3-5-3-0-1-0--|
B|------------------------------3----------------------------------------------------|
G|----------------------------------------------------------------------------------2|
D|-----------------------------------------------------------------------------------|
A|-----------------------------------------------------------------------------------|
E|-----------------------------------------------------------------------------------|

Could just be me. :P Either way well done.