Eternal Wind (Final Fantasy III) Guitar Tab

Submitted: Sep 30, 2007 by archard

4.857145
Average: 4.9 (7 votes)
Download | Listen
Game: Final Fantasy III
Composer(s): Nobuo Uematsu
Style: Arrangement
Series: Final Fantasy

AutoScroll: Slow | Medium | Fast
                        Final Fantasy 3 - Eternal Wind                          

                                                                   Nobuo Uematsu
Guitar

     E  E  E  E  E  E  E  E     E  E  E  E  E  E  Q
E||--------------------3-----|--0-----------------0----|
B||--3-----------------------|-----------1--3----------|
G||--0-----0--------0--------|--------------2----------|
D||--2--2-----2--------------|--------2-----2--2-------|
A||--3-----------3--------3--|-----3--------0----------|
E||--------------------------|-------------------------|

  E  E  E  E  E  E  E  E     E  E  E  E  E  E  E  E     E  H        E  E  E
--------------------------|-----0--------------------|-----------------------|
-----------3--------------|-----------1-----------3--|-----0-----------------|
-----------2-----2--------|--2-----2--2--------2-----|-----0-----------------|
-----2-----3--3-----3-----|-----------3-----3--------|--3--0-----------4-----|
--0--------0-----------0--|--------------0-----------|--------------2-----2--|
--------3-----------------|--------------------------|-----0-----------------|

  E  E  E  E  E  E  E  E     E  E  E  E  E  E  Q       E  E  E  E  E  E  E  E
--------------------3-----|--0-----------------0----|--------------------------|
--3-----------------------|-----------1--3----------|-----------3--------------|
--0-----0--------0--------|--------------2----------|-----------2-----2--------|
--2--2-----2--------------|--------2-----2--2-------|-----2-----3--3-----3-----|
--3-----------3--------3--|-----3--------0----------|--0--------0-----------0--|
--------------------------|-------------------------|--------3-----------------|

  E  E  E  E  E  E  E  E     E  H.           E     S S S S S S E  E  E  E  E
-----0--------------------|---------------------|--------0-2-4-5--------------|
-----------1-----------3--|-----0---------------|--0-1-3-------5--------------|
--2-----2--2--------2-----|-----0---------------|--------------5-----5--------|
-----------3-----3--------|--3--0---------------|--------------7--7-----7-----|
--------------0-----------|---------------------|--------------8-----------8--|
--------------------------|-----0---------------|-----------------------------|

  E  E  E  E  E  E  E  E     E  E  E  H        E     E  E  E  E  E  E  S S S S
-----------5-----8-----7--|-----------5-----------|--0-----0-------------------|
-----5--8-----------------|-----8-----3-----------|-----3--------------------3-|
--5-----------------------|-----------4-----------|--------------------0---0---|
--------------7-----5-----|-----------------------|--------------2-------2-----|
--------------------------|--7--------------------|-----------2-----2----------|
--------------------------|--------5--0-----------|----------------------------|

  E  E  E  E  E  E  E  E     Q    Q    Q    E  E     E  E  H.
--0--3--3--------------0--|--1----0---------------|---------------------|
--------1-----1-----3-----|--3----1----3----5-----|--------9------------|
--------2--2-----2--------|------------2----4-----|--4-----9------------|
--------------------------|-----------------6--6--|-----6--9------------|
--------------------------|-----------------4-----|--------7------------|
--------------------------|-----------------------|---------------------|

  E  E  E  E  E  E  E  E     Q    Q    Q    Q       W
--5-----------------------|--5----8----7---------|--5----------------|
--5-----------------5--8--|-----------------8----|--3----------------|
--5-----5--------5--------|----------------------|--4----------------|
--7--7-----7--------------|--7----5--------------|--5----------------|
--8-----------8-----------|------------7---------|--0----------------|
--------------------------|-----------------5----|--0----------------|

  E  E  E  E  E  E  Q       Q    Q.     E  E  E     Q    Q    Q    Q
--0-----0----------------|-------5------5--3-----|----------------------|
-----3-------------------|--3----3------------6--|--5----3---------3----|
--------------------0----|-------4---------------|------------5---------|
--------------2----------|-------5---------------|----------------------|
-----------2-----2-------|-------0---------------|----------------------|
-------------------------|-----------------------|----------------------|

  W                   W
--0----------------|--0----------------||
--0----------------|--0----------------||
--2----------------|--1----------------||
--4----------------|--2----------------||
--2----------------|--2----------------||
-------------------|-------------------||

Duration Legend
---------------
W - whole
H - half
Q - quarter
E - 8th
S - 16th
T - 32nd
X - 64th
. - note dotted
|-n-|  - n-tuplets
Login or Register to remove this ad.

3 comments on Eternal Wind

awesome XD

5

:O awesome tab!! i'm surprised that no one has rated/commented yet.. o.o i think you should do more arrangments. they're amazing :)

Oooo this is very pretty

5

Oooo this is very pretty archard.. great job! :)

Great

5

It's beautiful, but a bit difficult for the likes of me.