Town (Final Fantasy) Guitar Tab

Submitted: Jan 23, 2008 by Benefactor (Last updated: Sep 26, 2009)

5
Average: 5 (6 votes)
Download | Listen
Game: Final Fantasy
Composer(s): Nobuo Uematsu
Style: Arrangement, Fingerstyle
Series: Final Fantasy

AutoScroll: Slow | Medium | Fast
Song: Final Fantasy 1 Town
Composer: Nobue Uematsu
Tempo: 90 (con affetto)
Tuning: EADGBE (Standard)

Notes:  Play fluidly, barr where appropriate.
  Everything is 8th notes.

|| -0-----3-----------0--1--|-0----------------------|
|| -------------3-----------|----3--1----------------|
||*----0-----0--------------|----------2-----0-------|
||*-------2--------0--------|-------------2--------2-|
|| -3-----------2-----------|-0-----0----------------|
|| -------------------------|-------------------3----|

|-5-----------3-----0--1--|-0----------------------|
|----------------3--------|----------------------0-|
|-------5-----------------|-------0-----------1----|
|----3-----3--------------|----2-----2-----0-------|
|-3-----------------2-----|-3-----------2----------|
|-------------1-----------|------------------------|

|-8-----------8-----7--5--|-3-----0--1--0----------|
|-5-----------7-----------|----3--------------1----|
|----5-----5-----5--------|------------------------|
|-------7-----0-----------|----------------2-----2-|
|-0-----------------------|-------2-----3----------|
|-------------------------|-3----------------------|

|-------------------------|------------------------ ||
|-3-----------------1--3--|-1-----------0-----1--3- ||
|----------------3--------|----0-----0-----0-------*||
|-------------3-----------|-------0----------------*||
|----1-----1--------------|------------------------ ||
|-1-----1-----------------|-3-----------3---------- ||
Login or Register to remove this ad.

8 comments on Town

Thank you

Thank you

-0--- ----- how do you

-0---
----- how do you play this ????
-----
-3---
-----

Thumb on 3, middle on 0

Thumb on 3, middle on 0

thx Kabukibear

thx Kabukibear

Thank you

Thank you

very nice! I think the F in

5

very nice!

I think the F in the third bar should be a G though.

I agree with Richard Wade. It

I agree with Richard Wade. It should be a G. Still a good tab though!

Nice, some alterations

5

Very nice tab, although I have a few suggestions. I think the 2nd bar:

|-0----------------------|
|----3--1----------------|
|----------2-----0-------|
|-------------2--------2-|
|-0-----0----------------|
|-------------------3----|

Should be played like this:

|-0----------------------|
|----3--1-----------1----|
|----------2-----0-------|
|-------------2--------2-|
|-0-----0----------------|
|-------------------3----|

With the open e being played the same time as the g bass, and I think that the 3rd bar:

|-0----------------------|
|----------------------0-|
|-------0-----------1----|
|----2-----2-----0-------|
|-3-----------2----------|
|------------------------|

Should be played like this:

|-0-----------------0----|
|----------------------0-|
|-------0-----------1----|
|----2-----2-----0-------|
|-3-----------2----------|
|------------------------|

Similar to the my alteration of the 2nd bar, the open e is played on the 7th measure, just because I feel it sounds closer to the original. Other than that tab is flawless (excluding correction made by Richard Wade in comments).