Ship (Final Fantasy) Guitar Tab

Submitted: Dec 14, 2007 by Orusaka (Last updated: Sep 26, 2009)

5
Average: 5 (4 votes)
Download | Listen
Game: Final Fantasy
Composer(s): Nobuo Uematsu
Style: Arrangement, Fingerstyle
Series: Final Fantasy

AutoScroll: Slow | Medium | Fast
                                     Ship                                       


                                                                   Nobuo Uematsu
Guitar Solo



     H        Q    Q         E  E  E  E  E  E  E  E   
E||---------------------||---------------------------|
B||---------------------||---1-----------------------|
G||-----------2----3----||*--------------------------|
D||---------------------||*--------------------------|
A||---------------------||------3-----3-----3-----3--|
E||---------------------||---1-----1-----1-----1-----|


  E  E  E  E  E  E  E  E     E  E  E  E  E  E  E  E   
--------------------------|--------------------------|
--L-----------8--6--5--6--|--3-----------L-----------|
--------------------------|--------------------3-----|
-----7-----7-----7-----7--|-----3-----3-----3-----3--|
--5-----5-----5-----5-----|--1-----1-----1-----1-----|
--------------------------|--------------------------|


  E  E  E  E  E  E  E  E     E  E  E  E  E  E  E  E   
--------------1--0-----0--|--------------------------|
--------------------3-----|--1-----------L-----------|
--0-----------------------|--------------------2-----|
-----2-----2-----2-----2--|-----2-----2-----2-----2--|
--3-----3-----3-----3-----|--0-----0-----0-----0-----|
--------------------------|--------------------------|


  E  E  E  E  E  E  E  E     E  E  E  E  E  E  E  E   
--2-----------------------|--------------------------|
--------------3-----------|--------------------------|
-----------------5--3--2--|--3-----------L--0--2--3--|
-----4-----4-----4-----4--|-----5-----5-----5-----5--|
--5-----5-----5-----5-----|--6-----6-----6-----6-----|
--------------------------|--------------------------|


  E  E  E  E  E  E  E  E       E  E  E  E  E  E  E  E   
---------------------------||--------------------------|
---------------------------||--------------------------|
--5-----------2-----3-----*||--5-----------------------|
-----5-----5-----2-----2--*||-----5-----5-----5-----5--|
--3-----3-----3-----3------||--3-----3-----3-----3-----|
---------------------------||--------------------------|


  E  E  E  E  E  E  E  E     E  E  E  E  E  E  E  E   
--------------------0-----|--3-----1-----0-----1-----|
--1-----------3-----------|-----------------L--------|
--------------------------|-----2-----2-----2-----2--|
-----2-----2-----2-----2--|--0-----0-----0-----0-----|
--0-----0-----0-----0-----|--------------------------|
--------------------------|--------------------------|


  E  E  E  E  E  E  E  E     E  E  E  E  E  E  E  E   
--0-----------------------|--------------------------|
--------------1-----------|--3-----------------L-----|
-----2-----2-----2-----2--|-----2-----2-----2-----2--|
--------------------------|--0-----0-----0-----0-----|
--0-----0-----0-----0-----|--------------------------|
--------------------------|--------------------------|


  E  E  E  E  E  E  E  E     E  E  E  E  E  E  E  E   
--------------0-----1-----|--3-----1-----0-----1-----|
--3-----------------------|--------------------------|
-----3-----3-----3-----3--|-----0-----0-----0-----0--|
--------------------------|--------------------------|
--1-----1-----1-----1-----|--------------------------|
--------------------------|--3-----3-----3-----3-----|


  E  E  E  E  E  E  E  E     E  E  E  E  E  E  E  E   
--3-----------------5-----|--3-----------------------|
--------------3-----------|--------------------------|
-----0-----0-----0-----0--|--------------2-----3-----|
--------------------------|-----2-----2-----2-----2--|
--2-----2-----2-----2-----|--3-----3-----3-----3-----|
--------------------------|--------------------------|


  E  E  E  E  E  E  E  E     E  E  E  E  E  E  E  E   
--------------------------|--------------------------|
--1-----------------------|--L-----------8--6--5--6--|
--------------------------|--------------------------|
--------------------------|-----7-----7-----7-----7--|
-----3-----3-----3-----3--|--5-----5-----5-----5-----|
--1-----1-----1-----1-----|--------------------------|


  E  E  E  E  E  E  E  E     E  E  E  E  E  E  E  E   
--------------------------|--------------1--0-----0--|
--3-----------L-----------|--------------------3-----|
--------------------3-----|--0-----------------------|
-----3-----3-----3-----3--|-----2-----2-----2-----2--|
--1-----1-----1-----1-----|--3-----3-----3-----3-----|
--------------------------|--------------------------|


  E  E  E  E  E  E  E  E     E  E  E  E  E  E  E  E   
--------------------------|--2-----------------------|
--1-----------L-----------|--------------3-----------|
--------------------2-----|-----------------5--3--2--|
-----2-----2-----2-----2--|-----4-----4-----4-----4--|
--0-----0-----0-----0-----|--5-----5-----5-----5-----|
--------------------------|--------------------------|


  E  E  E  E  E  E  E  E     E  E  E  E  E  E  E  E   
--------------------------|--------------------------|
--------------------------|--------------------------|
--3-----------L--0--2--3--|--5-----------------------|
-----5-----5-----5-----5--|-----5-----5-----5-----5--|
--6-----6-----6-----6-----|--3-----3-----3-----3-----|
--------------------------|--------------------------|


  E  E  E  E  E  E  E  E     E  E  E  E  E  E  E  E   
--------------------0-----|--3-----1-----0-----1-----|
--1-----------3-----------|-----------------L--------|
--------------------------|-----2-----2-----2-----2--|
-----2-----2-----2-----2--|--0-----0-----0-----0-----|
--0-----0-----0-----0-----|--------------------------|
--------------------------|--------------------------|


  E  E  E  E  E  E  E  E     E  E  E  E  E  E  E  E   
--0-----------------------|--------------------------|
--------------1-----------|--3-----------------L-----|
-----2-----2-----2-----2--|-----2-----2-----2-----2--|
--------------------------|--0-----0-----0-----0-----|
--0-----0-----0-----0-----|--------------------------|
--------------------------|--------------------------|


  E  E  E  E  E  E  E  E     E  E  E  E  E  E  E  E   
--------------0-----1-----|--3-----1-----0-----1-----|
--3-----------------------|--------------------------|
-----3-----3-----3-----3--|-----0-----0-----0-----0--|
--------------------------|--------------------------|
--1-----1-----1-----1-----|--------------------------|
--------------------------|--3-----3-----3-----3-----|


  E  E  E  E  E  E  E  E     E  E  E  E  E  E  E  E     H.           Q      
--3-----------------5-----|--3-----------5-----5-----|--------------------||
--------------3-----------|--------------------------|--6-----------------||
-----0-----0-----0-----0--|-----0-----0-----0-----0--|--2-----------------||
--------------------------|--------------------------|--3-----------------||
--2-----2-----2-----2-----|--3-----3-----3-----3-----|--------------------||
--------------------------|--------------------------|--------------------||




Duration Legend
---------------
W - whole
H - half
Q - quarter
E - 8th
S - 16th
T - 32nd
X - 64th
L - tied note
. - note dotted
|-n-|  - n-tuplets
Login or Register to remove this ad.

1 comment on Ship

Thank you

Thank you