Login or Register to remove this ad.

Ship (Final Fantasy) Guitar Tab

Submitted: Sep 30, 2007 by archard (Last updated: Oct 22, 2007)

3.666665
Average: 3.7 (3 votes)
Download | Listen
Game: Final Fantasy
Composer(s): Nobuo Uematsu
Style: Transcription
Series: Final Fantasy

AutoScroll: Slow | Medium | Fast
Ship
Final Fantasy
Composed by Nobuo Uematsu
Tabbed by Richard Schaefer ([email protected])
1/8/06

e---------------15-13-12-13-----------------13-12----12--------------
B--10-11-13-----------------15----11--------------15----13----10-----
G------------------------------------12--------------------------11--
D--------------------------------------------------------------------
A--------------------------------------------------------------------
E--------------------------------------------------------------------

e--10------------------------------
B-----13-11-10-11--------10-11-13--
G---------------------12-----------
D----------------------------------
A----------------------------------
E---------------------------------- x2

e-----12-13-15-13-12-13-12-----------------------12-13-15-13-12-13-15------17-15--
B--15------------------------13----15--------15-------------------------15--------
G-------------------------------14------------------------------------------------
D---------------------------------------------------------------------------------
A---------------------------------------------------------------------------------
E---------------------------------------------------------------------------------

Repeat from beginning
Login or Register to remove this ad.