Ads

Prologue (Final Fantasy) Guitar Tab

Submitted: Mar 25, 2008 by Shade (Last updated: Mar 25, 2008)

4.5
Average: 4.5 (4 votes)
Download | Listen
Game: Final Fantasy
Composer(s): Nobuo Uematsu
Style: Arrangement
Series: Final Fantasy

This song is also called Main Theme

AutoScroll: Slow | Medium | Fast
Final Fantasy Main Theme
Nobuo Uemetsu
Tabbed by Shade

i'm not sure if this tab is incomplete or not, 
I feel like there is more to this song, but I can't 
seem to find a midi or an MP3 that isn't a full orchestra 
or a piano arrangement, and they like to have their creative 
way with things sometimes.  This is based on memory alone, 
feel free to add segments I missed.

One thing i noticed about this song is that the harmonics 
seem to answer each other, back and forth.  I know some can 
be turned into complete chords, if you like, but I haven't 
gotten around to writing those down.

e|-----------------------------------------
B|-----------------------------------------
G|------0-----3--2-0--------0--------------
D|----3-------3--3----3-2-3---3--3-2-------
A|--3------3--3--3----2----------3---------
E|-----------------------------------------


e|-----------------------------------------
B|-----------1-----------------------------
G|----0-2----2--3--2--0----2-0----2--0-----
D|--0-----0--0--------0--4------0-3--2-----
A|--0--------------------------------------
E|-----------------------------------------


e|-----------------------------------------
B|--------1-3--3--1------------------------
G|--0-2-3---3--3--2-2--3-3-2-0---0-2-3-----
D|----------0--0--3----4-------4-0---------
A|----------------3------------0-----------
E|-----------------------------------------


e|-----------------------------------------
B|--1--4--4-3----1-1-2--1-1-2--1-----------
G|-----3--3-3-3--2------1------0--3-2-0----
D|-----5--5-3---------------------3-0-2----
A|-----------------------------------------
E|-----------------------------------------
Login or Register to remove this ad.

3 comments on Prologue

Nice. Sounds Right To Me (:

5

Nice.
Sounds Right To Me (:

Very well done!

5

Very well done!

Definitely some off chords in

Definitely some off chords in there, sorry to say