Main Theme (Final Fantasy) Guitar Tab

Submitted: Sep 30, 2007 by archard (Last updated: Oct 12, 2011)

4
Average: 4 (3 votes)
Download | Listen
Game: Final Fantasy
Composer(s): Nobuo Uematsu
Style: Transcription
Series: Final Fantasy

This song is also called Overworld

AutoScroll: Slow | Medium | Fast
Overworld
Final Fantasy
Composed by Nobuo Uematsu

1/27/07

e-----------------------10-------
B--12-10-12-13-12-10-12------10--
G--------------------------------
D--------------------------------
A--------------------------------
E--------------------------------

e-----------10----------12-------
B--13-12-13----13-12-13------12--
G--------------------------------
D--------------------------------
A--------------------------------
E--------------------------------

e--12-14-15-14-12-10----10--------------
B--------------------13----10-12-13-12--
G---------------------------------------
D---------------------------------------
A---------------------------------------
E---------------------------------------

e-----------------10-------------10--
B--9-10-12-13--------13-12-10--------
G-----------------------------12-----
D------------------------------------
A------------------------------------
E------------------------------------

Repeat
Login or Register to remove this ad.

3 comments on Main Theme

MIDI file links to Mario

MIDI file links to Mario Overworld

weeeeeeeeeeeeeeeeeeeeeeeeeeee

weeeeeeeeeeeeeeeeeeeeeeeeeeeeeeeeeeeee im so happy!

Re: Overworld

This sounds great! It's also extremely easy to play XD.