Login or Register to remove this ad.

Castle Cornelia (Final Fantasy) Guitar Tab

Submitted: Oct 22, 2007 by Kabukibear (Last updated: Sep 20, 2009)

5
Average: 5 (11 votes)
Download | Listen
Game: Final Fantasy
Composer(s): Nobuo Uematsu
Style: Arrangement, Fingerstyle
Series: Final Fantasy

AutoScroll: Slow | Medium | Fast
Castle Cornelia                                 
~Final Fantasy~
Composed by: Nobuo Uematsu
Arranged by: Justin Lincoln

bpm=110

                       |--3--|                                  
     E  E  E  E  E  E  S  S  S E     E  E  E  E  E  E  E  S  S  
E||--2--------2--3--2--0h-2p-0----|--0-------------------------|
B||--------3-------------------3--|--------------0-----2--0h-2-|
G||-----2--------------2----------|--------2-------------------|
D||--0-----------0----------------|-----2-----2-----2----------|
A||-------------------------------|--0-------------------------|
E||-------------------------------|----------------------------|


                    |--3--|                                 
  E  E  E  E  E  E  S  S  S  E     E  E  E  E  E  E  E  E   
--------------0-----------------|-----------2--------------|
--3--------3-----3--2h-3p-2p-0--|--2-----------2-----------|
--------4-----------------------|-----------------3-----3--|
-----4--------------0-----------|--------4-----------4-----|
--2-----------2-----------------|-----4--------------------|
--------------------------------|--2-----------------------|


                             ^         ^                                      
  E  E  E  E  E  E  E  E     Q    Q    Q    E  E     E  E  E  E  E  E  E  E   
--------------------0-----|--2----3----5----3--2--|--0-----------------------|
--0--------2--3-----------|--3----5----4----------|--0-----0-----L--0--2--3--|
--------0--------------0--|-----------------------|-----2--0-----------------|
-----0-----------2--------|--4--------------------|--2--------4--2-----------|
--------------1-----------|--0---------2----------|--------------------------|
--3-----------------------|-----------------------|--------------------------|


                                               |--3--|     
  E  E  E  E  E  E  E  E     E  E  E  E  E  E  S  S  S E   
--2-----------0-----------|--2--------2--3--2--0h-2p-0----|
-----3--2--0--------------|--------3-------------------3--|
--------------2--0--------|-----2--------------2----------|
--------------------4--2--|--0-----------0----------------|
--------------------------|-------------------------------|
--------------------------|-------------------------------|


                                                 |--3--|      
  E  E  E  E  E  E  E  S  S    E  E  E  E  E  E  S  S  S  E   
--0-------------------------|--------------0-----------------|
--------------0-----2--0h-2-|--3--------3-----3--2h-3p-2p-0--|
--------2-------------------|--------4-----------------------|
-----2-----2-----2----------|-----4--------------0-----------|
--0-------------------------|--2-----------2-----------------|
----------------------------|--------------------------------|


                                                        ^         ^           
  E  E  E  E  E  E  E  E     E  E  E  E  E  E  E  E     Q    Q    Q    E  E   
-----------2--------------|--------------------0-----|--2----3----5----3--2--|
--2-----------2-----------|--0--------2--3-----------|--3----5----4----------|
-----------------3-----3--|--------0--------------0--|-----------------------|
--------4-----------4-----|-----0-----------2--------|--4--------------------|
-----4--------------------|--------------1-----------|--0---------2----------|
--2-----------------------|--3-----------------------|-----------------------|


                                         ^           
  E  E  E  E  E  E  E  E     E  E  E  E  Q    E  E   
--0-----------------------|--2-----------0-------0--|
--0-----0-----L--0--2--3--|--2--3--2--0--2----3-----|
-----2--0-----------------|--2-----------2----------|
--2--------4--2-----------|--------------2----------|
--------------------------|--0-----------0----------|
--------------------------|-------------------------|


                    |--3--|                   |--3--|     |--3--|      
  E  E  E  E  E  E  S  S  S E     E  E  E  E  S  S  S  E  S  S  S  E   
--1--------1--3--1--0h-1p-0----|--------------------------------------|
--------3-------------------3--|--2-----------------------------------|
-----2--------------2----------|--------2--3--2h-3p-2p-0--------------|
--0-----------0----------------|-----2--------------------3h-5p-3p-2--|
-------------------------------|--0-----------0-----------4-----------|
-------------------------------|--------------------------------------|


                                   |--3--| |--3--
  E  E  E  E  E  E  E  E     E  E  S  S  S S  S  S  E  E  E  E   
-----------1--4--5--1-----|--0-------------0h-1h-3p-1--0-----0--|
--3-----3--------------3--|--------0h-2h-3----------------3-----|
-----2--------------1-----|-----2-------------------------------|
--0-----------0-----------|-------------------------------------|
--------------------------|--0----------------------0-----4-----|
--------------------------|-------------------------------------|


                    |--3--|                   |--3--|     |--3--|
  E  E  E  E  E  E  S  S  S E     E  E  E  E  S  S  S  E  S  S  S  E   
--1--------1--3--1--0h-1p-0----|--------------------------------------|
--------3-------------------3--|--2-----------------------------------|
-----2--------------2----------|--------2--3--2h-3p-2p-0--------------|
--0-----------0----------------|-----2--------------------3h-5p-3p-2--|
-------------------------------|--0-----------0-----------4-----------|
-------------------------------|--------------------------------------|

                             1st ending------------,
  E  E  E  E  E  E  E  E     E  E  E  E  Q    E  E     
--1--------1--0--------0--|----------------------0---||
--------3-----------2-----|--3----------------3------||
-----2-----------2--------|-----2-------------------*||
--0-----------------------|--0-----3--2--0----------*||
--------------0-----------|--------------------------||
--------------------------|--------------------------||


  2nd ending ------------                ^             Rall.--------------
  E  E  E  E  E  E  E  E     E  E  E  E  Q    E  E     E  E  E  E  E  E  E  E   
--3--------3--1--------1--|--5--------5--6----5--3--|--1-----------------3-----|
--------2-----------3-----|--------6-----3----------|--------3-----3-----------|
-----3-----------2--------|-----5--------3----------|-----2-----2-----2-----2--|
--2-----------0-----------|--3----------------------|--------------------------|
--------------------------|-------------------------|--0-----------------------|
--------------------------|--------------3----------|--------------------------|


  ^                  
  W                  
--2----------------||
--3----------------||
--2----------------||
--0----------------||
-------------------||
-------------------||




Duration Legend
---------------
W - whole
H - half
Q - quarter
E - 8th
S - 16th
T - 32nd
X - 64th
. - note dotted
|-n-|  - n-tuplets


Tablature Legend
----------------
L - tied note
h - hammer on
p - pull off
^ - brush up
Rall. - gradually slow down
Login or Register to remove this ad.

9 comments on Castle Cornelia

I might change this around a

I might change this around a bit, I'm not feeling like it flows all that well.

changed...yeah I think I

changed...yeah I think I prefer that. :)

I like it. Pretty damn good

I like it. Pretty damn good if you ask me.

beautiful!!!! Thank you

beautiful!!!! Thank you

Awesome arrangement, I am

Awesome arrangement, I am definitely going to learn this one. However, on measure 8, it seems like there should be an open A, you do it in your youtube video...anyways, great job!

Yeah, there probably is. I

Yeah, there probably is. I find when I get ready to record stuff I tend to change minor things on the spot. I'm just too lazy to go back to the tab and change it because usually they're very minor things. Good ear though, :)

Awesome !

5

Awesome !

Great Job, Thanks

5

Great Job, Thanks

Really well

5

Really well done!
https://soundcloud.com/mickegitarr/final-fantasy-i-castle